Oops, an error
Loading. Please wait.

Teenage Goodnight Bass Tab

16 views 1 this week
no commentswrite comment
1 2 3 4 5
3 more votes to show rating
add to favorites
launch autoscroll
font size
0
reset
guitar tuner
Autoscroll
slow
fast
+/-
esc
set tempo
stop
Help us to improve Ultimate-Guitar.com Take our survey!
×
Author
Difficulty
novice
Tabbed by: 6METAL6BASSIST6
E-mail: petergriffinav@gmail.com

Tuning: EADG

G|------------------------------------------------------------------------------------------------|
D|5-----------------------------------------------5-----------------------------------------------|
A|------------------------------------5-----------------------------------------------5-----------|
E|------------------------------------------------------------------------------------------------|

0:08

G|------------------------------------------------------------------------------------------4-----|.
D|5-----------------------7-----------------------5-----------------------5-----------7-----------|.
A|------------5-----------------------5-----------------------5-----------------------------------|.
E|------------------------------------------------------------------------------------------------|.
                                                                                                   .
G|5-----------------------5-----------------------------------------------------------------4-----|.
D|------------5-----------------------5-----------5-----------------------5-----------7-----------|.
A|------------------------------------------------------------5-----------------------------------|.
E|------------------------------------------------------------------------------------------------|.
                                                                                                   . x2
G|5-----------------------5-----------9-----------12----------7-----------------------------------|.
D|------------5-----------------------------------------------------------5-----------------------|.
A|------------------------------------------------------------------------------------5-----------|.
E|------------------------------------------------------------------------------------------------|.
                                                                                                   .
G|7-----------------------7-----------------------------------------------------------------------|.
D|------------------------------------------------5-----------------------5-----------------------|.
A|------------5-----------------------5-----------------------5-----------------------5-----------|.
E|------------------------------------------------------------------------------------------------|.

G|------------------------------------------------|
D|5-----------------------5-----------------------|
A|------------5-----------------------5-----------|
E|------------------------------------------------|

1:10

G|------------------------------------------------------------------------------------7-----------|
D|5-----------------------7-----------------------5-----------------------5-----------------5-----|
A|------------5-----------------------5-----------------------5-----------------------------------|
E|------------------------------------------------------------------------------------------------|

G|5-----------------------5-----------------------------------------------------------7-----------|
D|------------5-----------------------5-----------5-----------------------5-----------------5-----|
A|------------------------------------------------------------5-----------------------------------|
E|------------------------------------------------------------------------------------------------|

1:25

G|5-----------------------5-----------------------------------------------------------------------|
D|------------5-----------------------5-----------5-----------------------5-----------------------|
A|------------------------------------------------------------5-----------------------5-----------|
E|------------------------------------------------------------------------------------------------|

G|7-----------------------7-----------------------------------------------------------------------|
D|------------------------------------------------5-----------------------------------------------|
A|------------5-----------------------5-----------------------------------------------5-----------|
E|------------------------------------------------------------------------------------------------|

1:40

G|------------------------------------------------------------------------------------------4-----|
D|5-----------------------7-----------------------5-----------------------5-----------7-----------|
A|------------5-----------------------5-----------------------5-----------------------------------|
E|------------------------------------------------------------------------------------------------|

G|5-----------------------5-----------------------------------------------------------------4-----|
D|------------5-----------------------5-----------5-----------------------5-----------7-----------|
A|------------------------------------------------------------5-----------------------------------|
E|------------------------------------------------------------------------------------------------|

1:54

G|5-----------------------5-----------------------------------------------------------------------|
D|------------5-----------------------5-----------5-----------------------5-----------------------|
A|------------------------------------------------------------5-----------------------5-----------|
E|------------------------------------------------------------------------------------------------|

G|7---------------------------7-------------------------------------------------------------------|
D|------------------------------------------------------------------------------------------------|
A|------------5---------------------------------5-------------------------------------------------|
E|------------------------------------------------------------------------------------------------|
Suggest correction
Give kudos to tab author, rate the tab!
1 2 3 4 5
comments
print report bad tab
guest
You may want to rate the tab now too:
select rating
Wanna post a correction for this tab? Suggest correction