Oops, an error
Loading. Please wait.

Electric Lash tab

280 views 6 this week
no commentswrite comment
1 2 3 4 5
2 more votes to show rating
add to favorites
×
Save as Personal and add changes to this tab that will be seen only by you. Learn more ›
×
You can save this tab as Personal to edit and correct it or add notes. All changes will be seen only by you. Learn more »
launch autoscroll
font size
0
reset
how to read this tab
guitar tuner
edit
Autoscroll
slow
fast
+/-
esc
set tempo
stop
-------------------------------------------------------------------------------
                         The Church - Electric Lash 
-------------------------------------------------------------------------------
Tabbed by: Rbeaver1340 

Tuning: Standard 


Intro Harmonics: 

e|---------------------------------------------------------------------------|
B|----+19-----+19------+12------+12-------+19-----+19------+12------+12------|
G|--+19-+19-+19-+19--+12-+12--+12-+12---+19-+19-+19-+19--+12-+12--+12-+12----|
D|+19-----+19------+12------+12-------+19-----+19------+12------+12----------|
A|---------------------------------------------------------------------------|
E|---------------------------------------------------------------------------|

e|---------------------------------------------------------------------------|
B|----+19-----+19------+12------+12-------+12--------------------------------|
G|--+19-+19-+19-+19--+12-+12--+12-+12---+12-+12-----11---+19-+19-+19+19+19---|
D|+19-----+19------+12------+12-------+12--------+12-+12---+19-+19--------+19|
A|---------------------------------------------+12---------------------------|
E|---------------------------------------------------------------------------|


Verse:

D                    G
The electric lash of trees in the studio

D                  G
Fills my head with light

D                      G
Only the voice of the girl on the radio

G        A         D
Falling from a height


D                      G
And I turn to leave as if in cameo

 D                     G       
It doesn't feel quite right

D                     G
Only one thing you ever really know

G        A       D 
If it's day or night


Chorus: 

G              D 
Our eyes meet and I love her

G                     D
I suspect she already knows

G                           D
How those eyes see me so very very clearly

G    A             D 
Even when they're closed


Verse: 

D                      G
The electric lash of trees in the studio

D              G
A bite then a caress

D                     G
Only the voice of the girl on the radio

G         A        D
Drifting from the west



D                      G
And I turn to leave as if in cameo

D               G
A moon, a knot, a guess

D                G
Only one thing you ever really know

G        A              D
You might curse before you bless


Chorus: 

G              D 
Our eyes meet and I love her

G                     D
I suspect she already knows

G                           D
How those eyes see me so very very clearly

G    A             D 
Even when they're closed


 
Solo: (x2) 

e|---------------------------------------------------------------------------|
B|2h3-2h3-2h3-2h3-2h3-2h3-2h3-2h3---2h3-5-3-2h3-5-3-2h3-5-3-2h3-5-3----------|
G|---------------------------------------------------------------------------|
D|---------------------------------------------------------------------------|
A|---------------------------------------------------------------------------|
E|---------------------------------------------------------------------------|

e|---2------2-------2-------2------------------------------------------------|
B|2h3--3-2h3--3-2h3---3-2h3---3-----2h3-5-3-2h3-5-3-2h3-5-3-2h3-5-3----------|
G|---------------------------------------------------------------------------|
D|---------------------------------------------------------------------------|
A|---------------------------------------------------------------------------|
E|---------------------------------------------------------------------------|

Solo: (x1) 

e|01010101010101010101010101010101-------------------------------------------|
B|---------------------------------------------------------------------------|
G|---------------------------------------------------------------------------|
D|---------------------------------------------------------------------------|
A|---------------------------------------------------------------------------|
E|---------------------------------------------------------------------------|

Fading Guitar with Delay Solo: 

e|----3----------5----------7------------------------------------------------|
B|--5---5------7---7------8---8-------7--------------------------------------|
G|7----------7----------7---------------7------------------------------------|
D|---------------------------------------------------------------------------|
A|---------------------------------------------------------------------------|
E|---------------------------------------------------------------------------|


Bridge: D G / D G / D G / G A D  (x2)


Verse:

D                    G
The electric lash of trees in the studio

D                  G
Fills my head with light

D                      G
Only the voice of the girl on the radio

G        A         D
Falling from a height


D                      G
And I turn to leave as if in cameo

 D                     G       
It doesn't feel quite right

D                     G
Only one thing you ever really know

G        A       D 
If it's day or night


Verse:

D                    G
The electric lash of trees in the studio

D                  G
Fills my head with light

D                      G
Only the voice of the girl on the radio

G        A         D
Falling from a height


D                      G
And I turn to leave as if in cameo

 D                     G       
It doesn't feel quite right

D                     G
Only one thing you ever really know

G        A       D 
If it's day or night


************************************

| /   slide up
| \   slide down
| h   hammer-on
| p   pull-off
| ~   vibrato
| +   harmonic
| x   Mute note
| b   Bend
| pb  Pre-bend
| br  Bend release
| pbr Pre-bend release
| brb Bend release bend

************************************

            
            
Suggest correction
Creating personal tab
Creating personal tab
You can edit any tab online and save it as your Personal.

You can edit, replace or remove any tab part or add personal notes – all changes will be seen only by you.

Personal tabs can be accessed anytime from any device, even offline.
Learn more »
Give kudos to tab author, rate the tab!
1 2 3 4 5
comments
print report bad tab
guest
You may want to rate the tab now too:
select rating
Wanna post a correction for this tab? Suggest correction