Oops, an error
Loading. Please wait.

Under The Milky Way tab

version 3
version 3

Whole song

Interactive

Video

271 views 1 this week
no commentswrite comment
1 2 3 4 5
2 more votes to show rating
add to favorites
×
Save as Personal and add changes to this tab that will be seen only by you. Learn more ›
×
You can save this tab as Personal to edit and correct it or add notes. All changes will be seen only by you. Learn more »
launch autoscroll
font size
0
reset
how to read this tab
guitar tuner
edit
Autoscroll
slow
fast
+/-
esc
set tempo
stop
Author
Difficulty
UNDER THE MILKY WAY

As recorded by The Church
(From the 1988 Album STARFISH)

Words and Music by Steve Kilbey & Karin Jansson

Transcribed by Slowhand

Gtr I (E A D G B E) - 'Marty Willson-Piper - Acoustic Guitar '
Gtr II (E A D G B E) - 'Marty Willson-Piper - Acoustic 12-string Guitar w/ capo 5th fret'
Gtr III (E A D G B E) - 'Peter Koppes - Electric Guitar'
Gtr IV (E A D G B E) - 'Peter Koppes - Electric Guitar'


   Intro
    Q=138
    Am           A7sus4                 Fmaj7/A      G
   4/4
    Gtr I (Ac. Gtr.)
    E E Q  E E E E   +E  E Q  E E E E   Q  E E E E E E   +E  E Q  E E E E
||--0-0-0--0-0-0-3-|-(3)-3-3--3-3-3-3-|-0--0-0-0-0-0-3-|-(3)-3-3--3-3-3-3--||
||o-1-1-1--1-1-1-3-|-(3)-3-3--3-3-3-3-|-1--1-1-1-1-1-3-|-(3)-3-3--3-3-3-3-o||
||--2-2-2--2-2-2-2-|-(2)-2-2--2-2-2-2-|-2--2-2-2-2-2-0-|-(0)-0-0--0-0-0-0--||
||--2-2-2--2-2-2-2-|-(2)-2-2--2-2-2-2-|-3--3-3-3-3-3-0-|-(0)-0-0--0-0-0-0--||
||o-0-0-0--0-0-0-0-|-(0)-0-0--0-0-0-0-|-0--0-0-0-0-0-2-|-(2)-2-2--2-2-2-2-o||
||-----------------|------------------|--------------3-|-(3)-3-3--3-3-3-3--||
|
|   Gtr II (Ac. 12-string Gtr. w/ capo 5th fret)
|   E E Q  E E E E   +E  E Q  E E E E   Q  E E E E E E   +E  E Q  E E E E
||--0-0-0--0-0-0-0-|-(0)-0-0--0-0-0-0-|-0--0-0-0-0-0-2-|-(2)-2-2--2-2-2-2--||
||o-0-0-0--0-0-0-3-|-(3)-3-3--3-3-3-3-|-0--0-0-0-0-0-3-|-(3)-3-3--3-3-3-3-o||
||--0-0-0--0-0-0-2-|-(2)-2-2--2-2-2-2-|-0--0-0-0-0-0-2-|-(2)-2-2--2-2-2-2--||
||--2-2-2--2-2-2---|------------------|-2--2-2-2-2-2-0-|-(0)-0-0--0-0-0-0--||
||o-2-2-2--2-2-2-2-|-(2)-2-2--2-2-2-2-|-3--3-3-3-3-3---|------------------o||
||--0-0-0--0-0-0-0-|-(0)-0-0--0-0-0-0-|-0--0-0-0-0-0---|-------------------||


   1st Verse
    Am           A7sus4                 Fmaj7/A      G
    E E Q  E E E E   +E  E Q  E E E E   Q  E E E E E E   +E  E Q  E E E E   4x
||--0-0-0--0-0-0-3-|-(3)-3-3--3-3-3-3-|-0--0-0-0-0-0-3-|-(3)-3-3--3-3-3-3---||
||o-1-1-1--1-1-1-3-|-(3)-3-3--3-3-3-3-|-1--1-1-1-1-1-3-|-(3)-3-3--3-3-3-3--o||
||--2-2-2--2-2-2-2-|-(2)-2-2--2-2-2-2-|-2--2-2-2-2-2-0-|-(0)-0-0--0-0-0-0---||
||--2-2-2--2-2-2-2-|-(2)-2-2--2-2-2-2-|-3--3-3-3-3-3-0-|-(0)-0-0--0-0-0-0---||
||o-0-0-0--0-0-0-0-|-(0)-0-0--0-0-0-0-|-0--0-0-0-0-0-2-|-(2)-2-2--2-2-2-2--o||
||-----------------|------------------|--------------3-|-(3)-3-3--3-3-3-3---||
|
|   E E Q  E E E E   +E  E Q  E E E E   Q  E E E E E E   +E  E Q  E E E E   4x
||--0-0-0--0-0-0-0-|-(0)-0-0--0-0-0-0-|-0--0-0-0-0-0-2-|-(2)-2-2--2-2-2-2---||
||o-0-0-0--0-0-0-3-|-(3)-3-3--3-3-3-3-|-0--0-0-0-0-0-3-|-(3)-3-3--3-3-3-3--o||
||--0-0-0--0-0-0-2-|-(2)-2-2--2-2-2-2-|-0--0-0-0-0-0-2-|-(2)-2-2--2-2-2-2---||
||--2-2-2--2-2-2---|------------------|-2--2-2-2-2-2-0-|-(0)-0-0--0-0-0-0---||
||o-2-2-2--2-2-2-2-|-(2)-2-2--2-2-2-2-|-3--3-3-3-3-3---|-------------------o||
||--0-0-0--0-0-0-0-|-(0)-0-0--0-0-0-0-|-0--0-0-0-0-0---|--------------------||


   2nd - 4th Verses
    $
    Am           A7sus4
    E E Q  E E E E   +E  E Q    E  E E E
||--0-0-0--0-0-0-3-|-(3)-3-3----3--3-3-3-|
||o-1-1-1--1-1-1-3-|-(3)-3-3----3--3-3-3-|
||--2-2-2--2-2-2-2-|-(2)-2-2----2--2-2-2-|
||--2-2-2--2-2-2-2-|-(2)-2-2----2--2-2-2-|
||o-0-0-0--0-0-0-0-|-(0)-0-0----0--0-0-0-|
||-----------------|---------------------|
|
|   E E Q  E E E E   +E  E Q    E  E E E
||--0-0-0--0-0-0-0-|-(0)-0-0----0--0-0-0-|
||o-0-0-0--0-0-0-3-|-(3)-3-3----3--3-3-3-|
||--0-0-0--0-0-0-2-|-(2)-2-2----2--2-2-2-|
||--2-2-2--2-2-2---|---------------------|
||o-2-2-2--2-2-2-2-|-(2)-2-2----2--2-2-2-|
||--0-0-0--0-0-0-0-|-(0)-0-0----0--0-0-0-|
|
|   Gtr III (Clean El. Gtr.)
|   E E Q  E Q   E   +E  Q   E +E  E E E
||-----------------|---------------------|
||o-----1--0-1---3-|-(3)-1---0-(0)-1-0---|
||----2------------|-------------------2-|
||-----------------|---------------------|
||o----------------|---------------------|
||-----------------|---------------------|


  Fmaj7           G
   Q    E E E E E E   +E  E Q   E E E E
|--0----0-0-0-0-0-3-|-(3)-3-3---3-3-3-3--|
|--1----1-1-1-1-1-3-|-(3)-3-3---3-3-3-3--|
|--2----2-2-2-2-2-0-|-(0)-0-0---0-0-0-0--|
|--3----3-3-3-3-3-0-|-(0)-0-0---0-0-0-0--|
|--0----0-0-0-0-0-2-|-(2)-2-2---2-2-2-2--|
|-----------------3-|-(3)-3-3---3-3-3-3--|
|
|  Q    E E E E E E   +E  E Q   E E E E
|--0----0-0-0-0-0-2-|-(2)-2-2---2-2-2-2--|
|--0----0-0-0-0-0-3-|-(3)-3-3---3-3-3-3--|
|--0----0-0-0-0-0-2-|-(2)-2-2---2-2-2-2--|
|--2----2-2-2-2-2-0-|-(0)-0-0---0-0-0-0--|
|--3----3-3-3-3-3---|--------------------|
|--0----0-0-0-0-0---|--------------------|
|
| +E  E Q   E Q   E   +E  Q   E Q   Q
|-----------------3-|-(3)-0-----3---0----|
|-------1---0-1-----|---------0----------|
|-(2)-2-------------|--------------------|
|-------------------|--------------------|
|-------------------|--------------------|
|-------------------|--------------------|


  Am           A7sus4                    Fmaj7           G
  E E Q  E E E E   +E  E Q    E  E E E    Q    E E E E E E   +E  E Q   E E E E
|-0-0-0--0-0-0-3-|-(3)-3-3----3--3-3-3-|--0----0-0-0-0-0-3-|-(3)-3-3---3-3-3-3-|
|-1-1-1--1-1-1-3-|-(3)-3-3----3--3-3-3-|--1----1-1-1-1-1-3-|-(3)-3-3---3-3-3-3-|
|-2-2-2--2-2-2-2-|-(2)-2-2----2--2-2-2-|--2----2-2-2-2-2-0-|-(0)-0-0---0-0-0-0-|
|-2-2-2--2-2-2-2-|-(2)-2-2----2--2-2-2-|--3----3-3-3-3-3-0-|-(0)-0-0---0-0-0-0-|
|-0-0-0--0-0-0-0-|-(0)-0-0----0--0-0-0-|--0----0-0-0-0-0-2-|-(2)-2-2---2-2-2-2-|
|----------------|---------------------|-----------------3-|-(3)-3-3---3-3-3-3-|
|
| E E Q  E E E E   +E  E Q    E  E E E    Q    E E E E E E   +E  E Q   E E E E
|-0-0-0--0-0-0-0-|-(0)-0-0----0--0-0-0-|--0----0-0-0-0-0-2-|-(2)-2-2---2-2-2-2-|
|-0-0-0--0-0-0-3-|-(3)-3-3----3--3-3-3-|--0----0-0-0-0-0-3-|-(3)-3-3---3-3-3-3-|
|-0-0-0--0-0-0-2-|-(2)-2-2----2--2-2-2-|--0----0-0-0-0-0-2-|-(2)-2-2---2-2-2-2-|
|-2-2-2--2-2-2---|---------------------|--2----2-2-2-2-2-0-|-(0)-0-0---0-0-0-0-|
|-2-2-2--2-2-2-2-|-(2)-2-2----2--2-2-2-|--3----3-3-3-3-3---|-------------------|
|-0-0-0--0-0-0-0-|-(0)-0-0----0--0-0-0-|--0----0-0-0-0-0---|-------------------|
|
| E E Q  E Q   E   +E  Q   E +E  E E E   +E  E Q   E Q   E   +E  Q   E Q   Q
|----------------|---------------------|-----------------3-|-(3)-0-----3---0---|
|-----1--0-1---3-|-(3)-1---0-(0)-1-0---|-------1---0-1-----|---------0---------|
|---2------------|-------------------2-|-(2)-2-------------|-------------------|
|----------------|---------------------|-------------------|-------------------|
|----------------|---------------------|-------------------|-------------------|
|----------------|---------------------|-------------------|-------------------|


  Am           A7sus4                    Fmaj7           G
  E E Q  E E E E   +E  E Q    E  E E E    Q    E E E E E E   +E  E Q   E E E E
|-0-0-0--0-0-0-3-|-(3)-3-3----3--3-3-3-|--0----0-0-0-0-0-3-|-(3)-3-3---3-3-3-3-|
|-1-1-1--1-1-1-3-|-(3)-3-3----3--3-3-3-|--1----1-1-1-1-1-3-|-(3)-3-3---3-3-3-3-|
|-2-2-2--2-2-2-2-|-(2)-2-2----2--2-2-2-|--2----2-2-2-2-2-0-|-(0)-0-0---0-0-0-0-|
|-2-2-2--2-2-2-2-|-(2)-2-2----2--2-2-2-|--3----3-3-3-3-3-0-|-(0)-0-0---0-0-0-0-|
|-0-0-0--0-0-0-0-|-(0)-0-0----0--0-0-0-|--0----0-0-0-0-0-2-|-(2)-2-2---2-2-2-2-|
|----------------|---------------------|-----------------3-|-(3)-3-3---3-3-3-3-|
|
| E E Q  E E E E   +E  E Q    E  E E E    Q    E E E E E E   +E  E Q   E E E E
|-0-0-0--0-0-0-0-|-(0)-0-0----0--0-0-0-|--0----0-0-0-0-0-2-|-(2)-2-2---2-2-2-2-|
|-0-0-0--0-0-0-3-|-(3)-3-3----3--3-3-3-|--0----0-0-0-0-0-3-|-(3)-3-3---3-3-3-3-|
|-0-0-0--0-0-0-2-|-(2)-2-2----2--2-2-2-|--0----0-0-0-0-0-2-|-(2)-2-2---2-2-2-2-|
|-2-2-2--2-2-2---|---------------------|--2----2-2-2-2-2-0-|-(0)-0-0---0-0-0-0-|
|-2-2-2--2-2-2-2-|-(2)-2-2----2--2-2-2-|--3----3-3-3-3-3---|-------------------|
|-0-0-0--0-0-0-0-|-(0)-0-0----0--0-0-0-|--0----0-0-0-0-0---|-------------------|
|
| E E Q  E Q   E   +E  Q   E +E  E E E   +E  E Q   E Q   E   +E  Q   E Q   Q
|----------------|---------------------|-----------------3-|-(3)-0-----3---0---|
|-----1--0-1---3-|-(3)-1---0-(0)-1-0---|-------1---0-1-----|---------0---------|
|---2------------|-------------------2-|-(2)-2-------------|-------------------|
|----------------|---------------------|-------------------|-------------------|
|----------------|---------------------|-------------------|-------------------|
|----------------|---------------------|-------------------|-------------------|


  Am           A7sus4
  E E Q  E E E E   +E  E Q    E  E E E
|-0-0-0--0-0-0-3-|-(3)-3-3----3--3-3-3-|
|-1-1-1--1-1-1-3-|-(3)-3-3----3--3-3-3-|
|-2-2-2--2-2-2-2-|-(2)-2-2----2--2-2-2-|
|-2-2-2--2-2-2-2-|-(2)-2-2----2--2-2-2-|
|-0-0-0--0-0-0-0-|-(0)-0-0----0--0-0-0-|
|----------------|---------------------|
|
| E E Q  E E E E   +E  E Q    E  E E E
|-0-0-0--0-0-0-0-|-(0)-0-0----0--0-0-0-|
|-0-0-0--0-0-0-3-|-(3)-3-3----3--3-3-3-|
|-0-0-0--0-0-0-2-|-(2)-2-2----2--2-2-2-|
|-2-2-2--2-2-2---|---------------------|
|-2-2-2--2-2-2-2-|-(2)-2-2----2--2-2-2-|
|-0-0-0--0-0-0-0-|-(0)-0-0----0--0-0-0-|
|
| E E Q  E Q   E   +E  Q   E +E  E E E
|----------------|---------------------|
|-----1--0-1---3-|-(3)-1---0-(0)-1-0---|
|---2------------|-------------------2-|
|----------------|---------------------|
|----------------|---------------------|
|----------------|---------------------|


  Fmaj7           G
   Q    E E E E E E   +E  E Q   E E E E
|--0----0-0-0-0-0-3-|-(3)-3-3---3-3-3-3-||
|--1----1-1-1-1-1-3-|-(3)-3-3---3-3-3-3-||
|--2----2-2-2-2-2-0-|-(0)-0-0---0-0-0-0-||
|--3----3-3-3-3-3-0-|-(0)-0-0---0-0-0-0-||
|--0----0-0-0-0-0-2-|-(2)-2-2---2-2-2-2-||
|-----------------3-|-(3)-3-3---3-3-3-3-||
|
|  Q    E E E E E E   +E  E Q   E E E E
|--0----0-0-0-0-0-2-|-(2)-2-2---2-2-2-2-||
|--0----0-0-0-0-0-3-|-(3)-3-3---3-3-3-3-||
|--0----0-0-0-0-0-2-|-(2)-2-2---2-2-2-2-||
|--2----2-2-2-2-2-0-|-(0)-0-0---0-0-0-0-||
|--3----3-3-3-3-3---|-------------------||
|--0----0-0-0-0-0---|-------------------||
|
| +E  E Q   E Q   E   +E  Q   E Q   Q
|-----------------3-|-(3)-0-----3---0---||
|-------1---0-1-----|---------0---------||
|-(2)-2-------------|-------------------||
|-------------------|-------------------||
|-------------------|-------------------||
|-------------------|-------------------||


 Chorus
  G                                  Fmaj7
   Q  Q  Q  E E   +E  E Q  E E E E    Q  Q  Q  E E   +E  E Q  E E E E
|--3--3--3--3-3-|-(3)-3-3--3-3-3-3-|--0--0--0--0-0-|-(0)-0-0--0-0-0-0-|
|--3--3--3--3-3-|-(3)-3-3--3-3-3-3-|--1--1--1--1-1-|-(1)-1-1--1-1-1-1-|
|--0--0--0--0-0-|-(0)-0-0--0-0-0-0-|--2--2--2--2-2-|-(2)-2-2--2-2-2-2-|
|--0--0--0--0-0-|-(0)-0-0--0-0-0-0-|--3--3--3--3-3-|-(3)-3-3--3-3-3-3-|
|--2--2--2--2-2-|-(2)-2-2--2-2-2-2-|---------------|------------------|
|--3--3--3--3-3-|-(3)-3-3--3-3-3-3-|--1--1--1--1-1-|-(1)-1-1--1-1-1-1-|
|
|  Q  Q  Q  E E   +E  E Q  E E E E    Q  Q  Q  E E   +E  E Q  E E E E
|--2--2--2--2-2-|-(2)-2-2--2-2-2-2-|--0--0--0--0-0-|-(0)-0-0--0-0-0-0-|
|--3--3--3--3-3-|-(3)-3-3--3-3-3-3-|--0--0--0--0-0-|-(0)-0-0--0-0-0-0-|
|--2--2--2--2-2-|-(2)-2-2--2-2-2-2-|--0--0--0--0-0-|-(0)-0-0--0-0-0-0-|
|--0--0--0--0-0-|-(0)-0-0--0-0-0-0-|--2--2--2--2-2-|-(2)-2-2--2-2-2-2-|
|---------------|------------------|--3--3--3--3-3-|-(3)-3-3--3-3-3-3-|
|---------------|------------------|---------------|------------------|
|
|  W              +W                  W              +W
|-^3------------|-(3)--------------|-^0------------|-(0)--------------|
|-^3------------|-(3)--------------|-^1------------|-(1)--------------|
|-^0------------|-(0)--------------|-^2------------|-(2)--------------|
|---------------|------------------|-^3------------|-(3)--------------|
|---------------|------------------|---------------|------------------|
|---------------|------------------|---------------|------------------|


                                                               To Coda
  G                                  Fmaj7
   Q  Q  Q  E E   +E  E Q  E E E E    Q  Q  Q  E E   +E  E Q  E E E E
|--3--3--3--3-3-|-(3)-3-3--3-3-3-3-|--0--0--0--0-0-|-(0)-0-0--0-0-0-0----||
|--3--3--3--3-3-|-(3)-3-3--3-3-3-3-|--1--1--1--1-1-|-(1)-1-1--1-1-1-1---o||
|--0--0--0--0-0-|-(0)-0-0--0-0-0-0-|--2--2--2--2-2-|-(2)-2-2--2-2-2-2----||
|--0--0--0--0-0-|-(0)-0-0--0-0-0-0-|--3--3--3--3-3-|-(3)-3-3--3-3-3-3----||
|--2--2--2--2-2-|-(2)-2-2--2-2-2-2-|---------------|--------------------o||
|--3--3--3--3-3-|-(3)-3-3--3-3-3-3-|--1--1--1--1-1-|-(1)-1-1--1-1-1-1----||
|
|  Q  Q  Q  E E   +E  E Q  E E E E    Q  Q  Q  E E   +E  E Q  E E E E
|--2--2--2--2-2-|-(2)-2-2--2-2-2-2-|--0--0--0--0-0-|-(0)-0-0--0-0-0-0----||
|--3--3--3--3-3-|-(3)-3-3--3-3-3-3-|--0--0--0--0-0-|-(0)-0-0--0-0-0-0---o||
|--2--2--2--2-2-|-(2)-2-2--2-2-2-2-|--0--0--0--0-0-|-(0)-0-0--0-0-0-0----||
|--0--0--0--0-0-|-(0)-0-0--0-0-0-0-|--2--2--2--2-2-|-(2)-2-2--2-2-2-2----||
|---------------|------------------|--3--3--3--3-3-|-(3)-3-3--3-3-3-3---o||
|---------------|------------------|---------------|---------------------||
|
|  W              +W                  W              +W
|-^3------------|-(3)--------------|-^0------------|-(0)-----------------||
|-^3------------|-(3)--------------|-^1------------|-(1)----------------o||
|-^0------------|-(0)--------------|-^2------------|-(2)-----------------||
|---------------|------------------|-^3------------|-(3)-----------------||
|---------------|------------------|---------------|--------------------o||
|---------------|------------------|---------------|---------------------||


 Chorus
  G                                  Fmaj7
   Q  Q  Q  E E   +E  E Q  E E E E    Q  Q  Q  E E   +E  E Q  E E E E
|--3--3--3--3-3-|-(3)-3-3--3-3-3-3-|--0--0--0--0-0-|-(0)-0-0--0-0-0-0-|
|--3--3--3--3-3-|-(3)-3-3--3-3-3-3-|--1--1--1--1-1-|-(1)-1-1--1-1-1-1-|
|--0--0--0--0-0-|-(0)-0-0--0-0-0-0-|--2--2--2--2-2-|-(2)-2-2--2-2-2-2-|
|--0--0--0--0-0-|-(0)-0-0--0-0-0-0-|--3--3--3--3-3-|-(3)-3-3--3-3-3-3-|
|--2--2--2--2-2-|-(2)-2-2--2-2-2-2-|---------------|------------------|
|--3--3--3--3-3-|-(3)-3-3--3-3-3-3-|--1--1--1--1-1-|-(1)-1-1--1-1-1-1-|
|
|  Q  Q  Q  E E   +E  E Q  E E E E    Q  Q  Q  E E   +E  E Q  E E E E
|--2--2--2--2-2-|-(2)-2-2--2-2-2-2-|--0--0--0--0-0-|-(0)-0-0--0-0-0-0-|
|--3--3--3--3-3-|-(3)-3-3--3-3-3-3-|--0--0--0--0-0-|-(0)-0-0--0-0-0-0-|
|--2--2--2--2-2-|-(2)-2-2--2-2-2-2-|--0--0--0--0-0-|-(0)-0-0--0-0-0-0-|
|--0--0--0--0-0-|-(0)-0-0--0-0-0-0-|--2--2--2--2-2-|-(2)-2-2--2-2-2-2-|
|---------------|------------------|--3--3--3--3-3-|-(3)-3-3--3-3-3-3-|
|---------------|------------------|---------------|------------------|
|
|  W              +W                  W              +W
|-^3------------|-(3)--------------|-^0------------|-(0)--------------|
|-^3------------|-(3)--------------|-^1------------|-(1)--------------|
|-^0------------|-(0)--------------|-^2------------|-(2)--------------|
|---------------|------------------|-^3------------|-(3)--------------|
|---------------|------------------|---------------|------------------|
|---------------|------------------|---------------|------------------|


  G                                  Fmaj7
   Q  Q  Q  E E   +E  E Q  E E E E    Q  Q  Q  E E   +E  E Q  E E E E
|--3--3--3--3-3-|-(3)-3-3--3-3-3-3-|--0--0--0--0-0-|-(0)-0-0--0-0-0-0-||
|--3--3--3--3-3-|-(3)-3-3--3-3-3-3-|--1--1--1--1-1-|-(1)-1-1--1-1-1-1-||
|--0--0--0--0-0-|-(0)-0-0--0-0-0-0-|--2--2--2--2-2-|-(2)-2-2--2-2-2-2-||
|--0--0--0--0-0-|-(0)-0-0--0-0-0-0-|--3--3--3--3-3-|-(3)-3-3--3-3-3-3-||
|--2--2--2--2-2-|-(2)-2-2--2-2-2-2-|---------------|------------------||
|--3--3--3--3-3-|-(3)-3-3--3-3-3-3-|--1--1--1--1-1-|-(1)-1-1--1-1-1-1-||
|
|  Q  Q  Q  E E   +E  E Q  E E E E    Q  Q  Q  E E   +E  E Q  E E E E
|--2--2--2--2-2-|-(2)-2-2--2-2-2-2-|--0--0--0--0-0-|-(0)-0-0--0-0-0-0-||
|--3--3--3--3-3-|-(3)-3-3--3-3-3-3-|--0--0--0--0-0-|-(0)-0-0--0-0-0-0-||
|--2--2--2--2-2-|-(2)-2-2--2-2-2-2-|--0--0--0--0-0-|-(0)-0-0--0-0-0-0-||
|--0--0--0--0-0-|-(0)-0-0--0-0-0-0-|--2--2--2--2-2-|-(2)-2-2--2-2-2-2-||
|---------------|------------------|--3--3--3--3-3-|-(3)-3-3--3-3-3-3-||
|---------------|------------------|---------------|------------------||
|
|  W              +W                  W              +W
|-^3------------|-(3)--------------|-^0------------|-(0)--------------||
|-^3------------|-(3)--------------|-^1------------|-(1)--------------||
|-^0------------|-(0)--------------|-^2------------|-(2)--------------||
|---------------|------------------|-^3------------|-(3)--------------||
|---------------|------------------|---------------|------------------||
|---------------|------------------|---------------|------------------||


   Synthesizer Solo
    C           G                      Am
    Q  Q  E E E E   +E  E Q  E E E E   Q  Q  E E E E   +E  E E E E E E E   3x
||--0--0--0-0-0-3-|-(3)-3-3--3-3-3-3-|-0--0--0-0-0-0-|-(0)-0-0-0-0-0-0-0---||
||o-1--1--1-1-1-3-|-(3)-3-3--3-3-3-3-|-1--1--1-1-1-1-|-(1)-1-1-1-1-1-1-1--o||
||--0--0--0-0-0-0-|-(0)-0-0--0-0-0-0-|-2--2--2-2-2-2-|-(2)-2-2-2-2-2-2-2---||
||--2--2--2-2-2-0-|-(0)-0-0--0-0-0-0-|-2--2--2-2-2-2-|-(2)-2-2-2-2-2-2-2---||
||o-3--3--3-3-3-2-|-(2)-2-2--2-2-2-2-|-0--0--0-0-0-0-|-(0)-0-0-0-0-0-0-0--o||
||--------------3-|-(3)-3-3--3-3-3-3-|---------------|---------------------||
|
|   Q  Q  E E E E   +E  E Q  E E E E   Q  Q  E E E E   +E  E E E E E E E   3x
||--3--3--3-3-3-2-|-(2)-2-2--2-2-2-2-|-0--0--0-0-0-0-|-(0)-0-0-0-0-0-0-0---||
||o-3--3--3-3-3-3-|-(3)-3-3--3-3-3-3-|-0--0--0-0-0-0-|-(0)-0-0-0-0-0-0-0--o||
||--0--0--0-0-0-2-|-(2)-2-2--2-2-2-2-|-0--0--0-0-0-0-|-(0)-0-0-0-0-0-0-0---||
||--0--0--0-0-0-0-|-(0)-0-0--0-0-0-0-|-2--2--2-2-2-2-|-(2)-2-2-2-2-2-2-2---||
||o-2--2--2-2-2---|------------------|-2--2--2-2-2-2-|-(2)-2-2-2-2-2-2-2--o||
||--3--3--3-3-3---|------------------|-0--0--0-0-0-0-|-(0)-0-0-0-0-0-0-0---||


                                                           D.S. al Coda
  C           G                      Am
  Q  Q  E E E E   +E  E Q  E E E E   Q  Q  E E E E   +E  E E E E E E E
|-0--0--0-0-0-3-|-(3)-3-3--3-3-3-3-|-0--0--0-0-0-0-|-(0)-0-0-0-0-0-0-0---||
|-1--1--1-1-1-3-|-(3)-3-3--3-3-3-3-|-1--1--1-1-1-1-|-(1)-1-1-1-1-1-1-1---||
|-0--0--0-0-0-0-|-(0)-0-0--0-0-0-0-|-2--2--2-2-2-2-|-(2)-2-2-2-2-2-2-2---||
|-2--2--2-2-2-0-|-(0)-0-0--0-0-0-0-|-2--2--2-2-2-2-|-(2)-2-2-2-2-2-2-2---||
|-3--3--3-3-3-2-|-(2)-2-2--2-2-2-2-|-0--0--0-0-0-0-|-(0)-0-0-0-0-0-0-0---||
|-------------3-|-(3)-3-3--3-3-3-3-|---------------|---------------------||
|
| Q  Q  E E E E   +E  E Q  E E E E   Q  Q  E E E E   +E  E E E E E E E
|-3--3--3-3-3-2-|-(2)-2-2--2-2-2-2-|-0--0--0-0-0-0-|-(0)-0-0-0-0-0-0-0---||
|-3--3--3-3-3-3-|-(3)-3-3--3-3-3-3-|-0--0--0-0-0-0-|-(0)-0-0-0-0-0-0-0---||
|-0--0--0-0-0-2-|-(2)-2-2--2-2-2-2-|-0--0--0-0-0-0-|-(0)-0-0-0-0-0-0-0---||
|-0--0--0-0-0-0-|-(0)-0-0--0-0-0-0-|-2--2--2-2-2-2-|-(2)-2-2-2-2-2-2-2---||
|-2--2--2-2-2---|------------------|-2--2--2-2-2-2-|-(2)-2-2-2-2-2-2-2---||
|-3--3--3-3-3---|------------------|-0--0--0-0-0-0-|-(0)-0-0-0-0-0-0-0---||


 Chorus
  &
  G                                  Fmaj7
   Q  Q  Q  E E   +E  E Q  E E E E    Q  Q  Q  E E   +E  E Q  E E E E
|--3--3--3--3-3-|-(3)-3-3--3-3-3-3-|--0--0--0--0-0-|-(0)-0-0--0-0-0-0-|
|--3--3--3--3-3-|-(3)-3-3--3-3-3-3-|--1--1--1--1-1-|-(1)-1-1--1-1-1-1-|
|--0--0--0--0-0-|-(0)-0-0--0-0-0-0-|--2--2--2--2-2-|-(2)-2-2--2-2-2-2-|
|--0--0--0--0-0-|-(0)-0-0--0-0-0-0-|--3--3--3--3-3-|-(3)-3-3--3-3-3-3-|
|--2--2--2--2-2-|-(2)-2-2--2-2-2-2-|---------------|------------------|
|--3--3--3--3-3-|-(3)-3-3--3-3-3-3-|--1--1--1--1-1-|-(1)-1-1--1-1-1-1-|
|
|  Q  Q  Q  E E   +E  E Q  E E E E    Q  Q  Q  E E   +E  E Q  E E E E
|--2--2--2--2-2-|-(2)-2-2--2-2-2-2-|--0--0--0--0-0-|-(0)-0-0--0-0-0-0-|
|--3--3--3--3-3-|-(3)-3-3--3-3-3-3-|--0--0--0--0-0-|-(0)-0-0--0-0-0-0-|
|--2--2--2--2-2-|-(2)-2-2--2-2-2-2-|--0--0--0--0-0-|-(0)-0-0--0-0-0-0-|
|--0--0--0--0-0-|-(0)-0-0--0-0-0-0-|--2--2--2--2-2-|-(2)-2-2--2-2-2-2-|
|---------------|------------------|--3--3--3--3-3-|-(3)-3-3--3-3-3-3-|
|---------------|------------------|---------------|------------------|
|
| Gtr III
|  W              +W                  W              +W
|-^3------------|-(3)--------------|-^0------------|-(0)--------------|
|-^3------------|-(3)--------------|-^1------------|-(1)--------------|
|-^0------------|-(0)--------------|-^2------------|-(2)--------------|
|---------------|------------------|-^3------------|-(3)--------------|
|---------------|------------------|---------------|------------------|
|---------------|------------------|---------------|------------------|


  G                                  Fmaj7
   Q  Q  Q  E E   +E  E Q  E E E E   Q  Q  Q  E E   +E  E Q  E E E E
|--3--3--3--3-3-|-(3)-3-3--3-3-3-3-|-0--0--0--0-0-|-(0)-0-0--0-0-0-0-||
|--3--3--3--3-3-|-(3)-3-3--3-3-3-3-|-1--1--1--1-1-|-(1)-1-1--1-1-1-1-||
|--0--0--0--0-0-|-(0)-0-0--0-0-0-0-|-2--2--2--2-2-|-(2)-2-2--2-2-2-2-||
|--0--0--0--0-0-|-(0)-0-0--0-0-0-0-|-3--3--3--3-3-|-(3)-3-3--3-3-3-3-||
|--2--2--2--2-2-|-(2)-2-2--2-2-2-2-|--------------|------------------||
|--3--3--3--3-3-|-(3)-3-3--3-3-3-3-|-1--1--1--1-1-|-(1)-1-1--1-1-1-1-||
|
|  Q  Q  Q  E E   +E  E Q  E E E E   Q  Q  Q  E E   +E  E Q  E E E E
|--2--2--2--2-2-|-(2)-2-2--2-2-2-2-|-0--0--0--0-0-|-(0)-0-0--0-0-0-0-||
|--3--3--3--3-3-|-(3)-3-3--3-3-3-3-|-0--0--0--0-0-|-(0)-0-0--0-0-0-0-||
|--2--2--2--2-2-|-(2)-2-2--2-2-2-2-|-0--0--0--0-0-|-(0)-0-0--0-0-0-0-||
|--0--0--0--0-0-|-(0)-0-0--0-0-0-0-|-2--2--2--2-2-|-(2)-2-2--2-2-2-2-||
|---------------|------------------|-3--3--3--3-3-|-(3)-3-3--3-3-3-3-||
|---------------|------------------|--------------|------------------||
|
|                                  Gtr IV (El. Gtr. w/ light dist. & reverb)
|                                             ~~~~~~~~~~
|  W              +W                 H     Q  Q     +W
|-^3------------|-(3)--------------|--------------|------------------||
|-^3------------|-(3)--------------|----------8---|-(8)--------------||
|-^0------------|-(0)--------------|--------------|------------------||
|---------------|------------------|--------------|------------------||
|---------------|------------------|--------------|------------------||
|---------------|------------------|--------------|------------------||


 Outro
  Am              A7sus4                 Fmaj7/A      G
   E   E Q  E E E E   +E  E Q  E E E E   Q  E E E E E E   +E  E Q  E E E E
|--0---0-0--0-0-0-3-|-(3)-3-3--3-3-3-3-|-0--0-0-0-0-0-3-|-(3)-3-3--3-3-3-3-|
|--1---1-1--1-1-1-3-|-(3)-3-3--3-3-3-3-|-1--1-1-1-1-1-3-|-(3)-3-3--3-3-3-3-|
|--2---2-2--2-2-2-2-|-(2)-2-2--2-2-2-2-|-2--2-2-2-2-2-0-|-(0)-0-0--0-0-0-0-|
|--2---2-2--2-2-2-2-|-(2)-2-2--2-2-2-2-|-3--3-3-3-3-3-0-|-(0)-0-0--0-0-0-0-|
|--0---0-0--0-0-0-0-|-(0)-0-0--0-0-0-0-|-0--0-0-0-0-0-2-|-(2)-2-2--2-2-2-2-|
|-------------------|------------------|--------------3-|-(3)-3-3--3-3-3-3-|
|
|  E   E Q  E E E E   +E  E Q  E E E E   Q  E E E E E E   +E  E Q  E E E E
|--0---0-0--0-0-0-0-|-(0)-0-0--0-0-0-0-|-0--0-0-0-0-0-2-|-(2)-2-2--2-2-2-2-|
|--0---0-0--0-0-0-3-|-(3)-3-3--3-3-3-3-|-0--0-0-0-0-0-3-|-(3)-3-3--3-3-3-3-|
|--0---0-0--0-0-0-2-|-(2)-2-2--2-2-2-2-|-0--0-0-0-0-0-2-|-(2)-2-2--2-2-2-2-|
|--2---2-2--2-2-2---|------------------|-2--2-2-2-2-2-0-|-(0)-0-0--0-0-0-0-|
|--2---2-2--2-2-2-2-|-(2)-2-2--2-2-2-2-|-3--3-3-3-3-3---|------------------|
|--0---0-0--0-0-0-0-|-(0)-0-0--0-0-0-0-|-0--0-0-0-0-0---|------------------|
|
|  ~~~~
| +H..            E    H.          Q     W                +H.          Q
|-------------------|------------------|----------------|------------------|
|-(8)---------------|------------------|----------------|------------------|
|-----------------7-|--5-----------5---|----------------|------------------|
|-------------------|------------------|-5--------------|-(5)----------5---|
|-------------------|------------------|----------------|------------------|
|-------------------|------------------|----------------|------------------|


  Am           A7sus4                 Fmaj7/A       G
  E E Q  E E E E   +E  E Q  E E E E   Q   E E E E E E   +E  E Q   E E E E
|-0-0-0--0-0-0-3-|-(3)-3-3--3-3-3-3-|-0---0-0-0-0-0-3-|-(3)-3-3---3-3-3-3-|
|-1-1-1--1-1-1-3-|-(3)-3-3--3-3-3-3-|-1---1-1-1-1-1-3-|-(3)-3-3---3-3-3-3-|
|-2-2-2--2-2-2-2-|-(2)-2-2--2-2-2-2-|-2---2-2-2-2-2-0-|-(0)-0-0---0-0-0-0-|
|-2-2-2--2-2-2-2-|-(2)-2-2--2-2-2-2-|-3---3-3-3-3-3-0-|-(0)-0-0---0-0-0-0-|
|-0-0-0--0-0-0-0-|-(0)-0-0--0-0-0-0-|-0---0-0-0-0-0-2-|-(2)-2-2---2-2-2-2-|
|----------------|------------------|---------------3-|-(3)-3-3---3-3-3-3-|
|
| E E Q  E E E E   +E  E Q  E E E E   Q   E E E E E E   +E  E Q   E E E E
|-0-0-0--0-0-0-0-|-(0)-0-0--0-0-0-0-|-0---0-0-0-0-0-2-|-(2)-2-2---2-2-2-2-|
|-0-0-0--0-0-0-3-|-(3)-3-3--3-3-3-3-|-0---0-0-0-0-0-3-|-(3)-3-3---3-3-3-3-|
|-0-0-0--0-0-0-2-|-(2)-2-2--2-2-2-2-|-0---0-0-0-0-0-2-|-(2)-2-2---2-2-2-2-|
|-2-2-2--2-2-2---|------------------|-2---2-2-2-2-2-0-|-(0)-0-0---0-0-0-0-|
|-2-2-2--2-2-2-2-|-(2)-2-2--2-2-2-2-|-3---3-3-3-3-3---|-------------------|
|-0-0-0--0-0-0-0-|-(0)-0-0--0-0-0-0-|-0---0-0-0-0-0---|-------------------|
|
| W                +H       H         H.          Q     +Q    H.
|----------------|------------------|-----------------|-------------------|
|-8--------------|-(8)------8-------|-----------------|-------------------|
|----------------|------------------|-----------------|-------------------|
|----------------|------------------|-5-----------5---|-(5)---5-----------|
|----------------|------------------|-----------------|-------------------|
|----------------|------------------|-----------------|-------------------|


  Am           A7sus4
  E E Q  E E E E   +E  E Q   E  E E    E
|-0-0-0--0-0-0-3-|-(3)-3-3---3--3-3----3-|
|-1-1-1--1-1-1-3-|-(3)-3-3---3--3-3----3-|
|-2-2-2--2-2-2-2-|-(2)-2-2---2--2-2----2-|
|-2-2-2--2-2-2-2-|-(2)-2-2---2--2-2----2-|
|-0-0-0--0-0-0-0-|-(0)-0-0---0--0-0----0-|
|----------------|-----------------------|
|
| E E Q  E E E E   +E  E Q   E  E E    E
|-0-0-0--0-0-0-0-|-(0)-0-0---0--0-0----0-|
|-0-0-0--0-0-0-3-|-(3)-3-3---3--3-3----3-|
|-0-0-0--0-0-0-2-|-(2)-2-2---2--2-2----2-|
|-2-2-2--2-2-2---|-----------------------|
|-2-2-2--2-2-2-2-|-(2)-2-2---2--2-2----2-|
|-0-0-0--0-0-0-0-|-(0)-0-0---0--0-0----0-|
|
| W                +H       +E  E Q
|----------------|-----------------------|
|----------------|-----------------------|
|-7--------------|-(7)------(7)s5-7b9====|
|----------------|-----------------------|
|----------------|-----------------------|
|----------------|-----------------------|


  Fmaj7/A             G
   Q      E E  E  E E E   +E  E  Q   E  E E E
|--0------0-0--0--0-0-3-|-(3)-3--3---3--3-3-3-|
|--1------1-1--1--1-1-3-|-(3)-3--3---3--3-3-3-|
|--2------2-2--2--2-2-0-|-(0)-0--0---0--0-0-0-|
|--3------3-3--3--3-3-0-|-(0)-0--0---0--0-0-0-|
|--0------0-0--0--0-0-2-|-(2)-2--2---2--2-2-2-|
|---------------------3-|-(3)-3--3---3--3-3-3-|
|
|  Q      E E  E  E E E   +E  E  Q   E  E E E
|--0------0-0--0--0-0-2-|-(2)-2--2---2--2-2-2-|
|--0------0-0--0--0-0-3-|-(3)-3--3---3--3-3-3-|
|--0------0-0--0--0-0-2-|-(2)-2--2---2--2-2-2-|
|--2------2-2--2--2-2-0-|-(0)-0--0---0--0-0-0-|
|--3------3-3--3--3-3---|---------------------|
|--0------0-0--0--0-0---|---------------------|
|
| +E   Q.     +H          +E  Q.    +H
|-----------------------|---------------------|
|-----------------------|-----0-----(0)-------|
|-(7)r-7------(7)-------|-(7)-0-----(0)-------|
|-----------------------|---------------------|
|-----------------------|---------------------|
|-----------------------|---------------------|


  Am            A7sus4
   E E Q  E E E E    +E  E Q    E  E    E    E
|--0-0-0--0-0-0-3-|--(3)-3-3----3--3----3----3-|
|--1-1-1--1-1-1-3-|--(3)-3-3----3--3----3----3-|
|--2-2-2--2-2-2-2-|--(2)-2-2----2--2----2----2-|
|--2-2-2--2-2-2-2-|--(2)-2-2----2--2----2----2-|
|--0-0-0--0-0-0-0-|--(0)-0-0----0--0----0----0-|
|-----------------|----------------------------|
|
|  E E Q  E E E E    +E  E Q    E  E    E    E
|--0-0-0--0-0-0-0-|--(0)-0-0----0--0----0----0-|
|--0-0-0--0-0-0-3-|--(3)-3-3----3--3----3----3-|
|--0-0-0--0-0-0-2-|--(2)-2-2----2--2----2----2-|
|--2-2-2--2-2-2---|----------------------------|
|--2-2-2--2-2-2-2-|--(2)-2-2----2--2----2----2-|
|--0-0-0--0-0-0-0-|--(0)-0-0----0--0----0----0-|
|
|                               |----3-----|
|  W                 +H        +Q     Q    Q
|-----------------|----------------------------|
|-10--------------|-(10)------(10)---12---13---|
|-----------------|----------------------------|
|-----------------|----------------------------|
|-----------------|----------------------------|
|-----------------|----------------------------|


  Fmaj7/A       G
   Q  E E E E E E    +E  E  Q   E  E E E
|--0--0-0-0-0-0-3-|--(3)-3--3---3--3-3-3-|
|--1--1-1-1-1-1-3-|--(3)-3--3---3--3-3-3-|
|--2--2-2-2-2-2-0-|--(0)-0--0---0--0-0-0-|
|--3--3-3-3-3-3-0-|--(0)-0--0---0--0-0-0-|
|--0--0-0-0-0-0-2-|--(2)-2--2---2--2-2-2-|
|---------------3-|--(3)-3--3---3--3-3-3-|
|
|  Q  E E E E E E    +E  E  Q   E  E E E
|--0--0-0-0-0-0-2-|--(2)-2--2---2--2-2-2-|
|--0--0-0-0-0-0-3-|--(3)-3--3---3--3-3-3-|
|--0--0-0-0-0-0-2-|--(2)-2--2---2--2-2-2-|
|--2--2-2-2-2-2-0-|--(0)-0--0---0--0-0-0-|
|--3--3-3-3-3-3---|----------------------|
|--0--0-0-0-0-0---|----------------------|
|
|  W                 +E  Q.    +H
|-----------------|----------------------|
|-10--------------|-(10)-0-----(0)-------|
|-----------------|------0-----(0)-------|
|-----------------|----------------------|
|-----------------|----------------------|
|-----------------|----------------------|


  Am           A7sus4                 Fmaj7           G
  E E Q  E E E E   +E  E Q  E E E E    Q    E E E E E E   +E E   Q  E E E E
|-0-0-0--0-0-0-3-|-(3)-3-3--3-3-3-3-|--0----0-0-0-0-0-3-|-(3)3---3--3-3-3-3--|
|-1-1-1--1-1-1-3-|-(3)-3-3--3-3-3-3-|--1----1-1-1-1-1-3-|-(3)3---3--3-3-3-3--|
|-2-2-2--2-2-2-2-|-(2)-2-2--2-2-2-2-|--2----2-2-2-2-2-0-|-(0)0---0--0-0-0-0--|
|-2-2-2--2-2-2-2-|-(2)-2-2--2-2-2-2-|--3----3-3-3-3-3-0-|-(0)0---0--0-0-0-0--|
|-0-0-0--0-0-0-0-|-(0)-0-0--0-0-0-0-|--0----0-0-0-0-0-2-|-(2)2---2--2-2-2-2--|
|----------------|------------------|-----------------3-|-(3)3---3--3-3-3-3--|
|
| E E Q  E E E E   +E  E Q  E E E E    Q    E E E E E E   +E E   Q  E E E E
|-0-0-0--0-0-0-0-|-(0)-0-0--0-0-0-0-|--0----0-0-0-0-0-2-|-(2)2---2--2-2-2-2--|
|-0-0-0--0-0-0-3-|-(3)-3-3--3-3-3-3-|--0----0-0-0-0-0-3-|-(3)3---3--3-3-3-3--|
|-0-0-0--0-0-0-2-|-(2)-2-2--2-2-2-2-|--0----0-0-0-0-0-2-|-(2)2---2--2-2-2-2--|
|-2-2-2--2-2-2---|------------------|--2----2-2-2-2-2-0-|-(0)0---0--0-0-0-0--|
|-2-2-2--2-2-2-2-|-(2)-2-2--2-2-2-2-|--3----3-3-3-3-3---|--------------------|
|-0-0-0--0-0-0-0-|-(0)-0-0--0-0-0-0-|--0----0-0-0-0-0---|--------------------|
|
| H      H         +W                 +E  E E E E E E E    E S S Q  H
|----------------|------------------|-------------------|--------------------|
|--------5-------|-(5)--------------|-(5)-6-5h6p5h6p5h6p|==5h6p5-------------|
|----------------|------------------|-------------------|--------7-----------|
|----------------|------------------|-------------------|--------------------|
|----------------|------------------|-------------------|--------------------|
|----------------|------------------|-------------------|--------------------|


  Am            A7sus4
   E E Q  E E E E    +E  E Q    E  E    E    E
|--0-0-0--0-0-0-3-|--(3)-3-3----3--3----3----3-|
|--1-1-1--1-1-1-3-|--(3)-3-3----3--3----3----3-|
|--2-2-2--2-2-2-2-|--(2)-2-2----2--2----2----2-|
|--2-2-2--2-2-2-2-|--(2)-2-2----2--2----2----2-|
|--0-0-0--0-0-0-0-|--(0)-0-0----0--0----0----0-|
|-----------------|----------------------------|
|
|  E E Q  E E E E    +E  E Q    E  E    E    E
|--0-0-0--0-0-0-0-|--(0)-0-0----0--0----0----0-|
|--0-0-0--0-0-0-3-|--(3)-3-3----3--3----3----3-|
|--0-0-0--0-0-0-2-|--(2)-2-2----2--2----2----2-|
|--2-2-2--2-2-2---|----------------------------|
|--2-2-2--2-2-2-2-|--(2)-2-2----2--2----2----2-|
|--0-0-0--0-0-0-0-|--(0)-0-0----0--0----0----0-|
|
|                               |----3-----|
|  W                 +H        +Q     Q    Q
|-----------------|----------------------------|
|-10--------------|-(10)------(10)---12---13---|
|-----------------|----------------------------|
|-----------------|----------------------------|
|-----------------|----------------------------|
|-----------------|----------------------------|


  Fmaj7            G
   Q   E E  E  E E  E    +E  E  Q   E  E E E
|--0---0-0--0--0-0--3-|--(3)-3--3---3--3-3-3-|
|--1---1-1--1--1-1--3-|--(3)-3--3---3--3-3-3-|
|--2---2-2--2--2-2--0-|--(0)-0--0---0--0-0-0-|
|--3---3-3--3--3-3--0-|--(0)-0--0---0--0-0-0-|
|--0---0-0--0--0-0--2-|--(2)-2--2---2--2-2-2-|
|-------------------3-|--(3)-3--3---3--3-3-3-|
|
|  Q   E E  E  E E  E    +E  E  Q   E  E E E
|--0---0-0--0--0-0--2-|--(2)-2--2---2--2-2-2-|
|--0---0-0--0--0-0--3-|--(3)-3--3---3--3-3-3-|
|--0---0-0--0--0-0--2-|--(2)-2--2---2--2-2-2-|
|--2---2-2--2--2-2--0-|--(0)-0--0---0--0-0-0-|
|--3---3-3--3--3-3----|----------------------|
|--0---0-0--0--0-0----|----------------------|
|
|  Q.    E  Q.      E    +E  Q.    +H
|---------------------|----------------------|
|-10-----8-10------10-|-(10)-0-----(0)-------|
|---------------------|------0-----(0)-------|
|---------------------|----------------------|
|---------------------|----------------------|
|---------------------|----------------------|


    Am            A7sus4
    E E Q   E E E E   +E E Q   E E E E
||--0-0-0---0-0-0-3-|-(3)3-3---3-3-3-3-|
||o-1-1-1---1-1-1-3-|-(3)3-3---3-3-3-3-|
||--2-2-2---2-2-2-2-|-(2)2-2---2-2-2-2-|
||--2-2-2---2-2-2-2-|-(2)2-2---2-2-2-2-|
||o-0-0-0---0-0-0-0-|-(0)0-0---0-0-0-0-|
||------------------|------------------|
|
|   E E Q   E E E E   +E E Q   E E E E
||--0-0-0---0-0-0-0-|-(0)0-0---0-0-0-0-|
||o-0-0-0---0-0-0-3-|-(3)3-3---3-3-3-3-|
||--0-0-0---0-0-0-2-|-(2)2-2---2-2-2-2-|
||--2-2-2---2-2-2---|------------------|
||o-2-2-2---2-2-2-2-|-(2)2-2---2-2-2-2-|
||--0-0-0---0-0-0-0-|-(0)0-0---0-0-0-0-|
|
|   E E E E E E E E    E E E E E E E E
||------------------|------------2-----|
||o-0h1p0h1p0h1p0h1p|==0h1-5p3-5---3-5-|
||------------------|------------------|
||------------------|------------------|
||o-----------------|------------------|
||------------------|------------------|


  Fmaj7          G
   Q   E E E E E E   +E  E Q  E E E E   3x
|--0---0-0-0-0-0-3-|-(3)-3-3--3-3-3-3---||
|--1---1-1-1-1-1-3-|-(3)-3-3--3-3-3-3--o||
|--2---2-2-2-2-2-0-|-(0)-0-0--0-0-0-0---||
|--3---3-3-3-3-3-0-|-(0)-0-0--0-0-0-0---||
|--0---0-0-0-0-0-2-|-(2)-2-2--2-2-2-2--o||
|----------------3-|-(3)-3-3--3-3-3-3---||
|
|  Q   E E E E E E   +E  E Q  E E E E   3x
|--0---0-0-0-0-0-2-|-(2)-2-2--2-2-2-2---||
|--0---0-0-0-0-0-3-|-(3)-3-3--3-3-3-3--o||
|--0---0-0-0-0-0-2-|-(2)-2-2--2-2-2-2---||
|--2---2-2-2-2-2-0-|-(0)-0-0--0-0-0-0---||
|--3---3-3-3-3-3---|-------------------o||
|--0---0-0-0-0-0---|--------------------||
|
| +Q   Q   H          W                 3x
|------------------|--------------------||
|-(5)--------------|-------------------o||
|------------------|--------------------||
|------------------|--------------------||
|------------------|-------------------o||
|------------------|--------------------||


Duration Legend
---------------
W - whole; H - half; Q - quarter; E - 8th; S - 16th; T - 32nd; X - 64th; a - acciaccatura
+ - note tied to previous; . - note dotted; .. - note double dotted
Uncapitalized letters represent notes that are staccato (1/2 duration)
Irregular groupings are notated above the duration line
Duration letters will always appear directly above the note/fret number it represents the
duration for.  Duration letters with no fret number below them represent rests.  Multi-
bar rests are notated in the form Wxn, where n is the number of bars to rest for.  Low
melody durations appear below the staff

Tablature Legend
----------------
 h   - hammer-on
 p   - pull-off
 b   - bend
 pb  - pre-bend
 r   - bend release (if no number after the r, then release immediately)
 /\  - slide into or out of (from/to "nowhere")
 s   - legato slide
 S   - shift slide
  - natural harmonic
[n]  - artificial harmonic
n(n) - tapped harmonic
 ~   - vibrato
 tr  - trill
 T   - tap
 TP  - trem. picking
 PM  - palm muting
\n/  - tremolo bar dip; n = amount to dip
 \n  - tremolo bar down
 n/  - tremolo bar up
/n\  - tremolo bar inverted dip
 =   - hold bend; also acts as connecting device for hammers/pulls
 <>  - volume swell (louder/softer)
 x   - on rhythm slash represents muted slash
 o   - on rhythm slash represents single note slash

Misc Legend
-----------
 |  - bar
||  - double bar
||o - repeat start
o|| - repeat end
*|  - double bar (ending)
 :  - bar (freetime)
 $  - Segno
 &  - Coda
Tempo markers -  = BPM(8/16=s8/s16), where s8 = swing 8ths, s16 = swing 16ths



Sometimes when this place gets kinda empty
The sound of the breath fades with the light
I think about the loveless fascination
Under the Milky Way tonight

Lower the curtain down on Memphis
Lower the curtain down on me
I got no time for private consultation
Under the Milky Way tonight

Wish I knew what you were looking for
Might have known what you would find

And it's something quite peculiar
Something shimmering and white
It leads you here, despite your destination
Under the Milky Way tonight

Wish I knew what you were looking for
Might have known what you would find
Wish I knew what you were looking for
Might have known what you would find

And it's something quite peculiar
Something shimmering and white
Leads you here, despite your destination
Under the Milky Way tonight

Wish I knew what you were looking for
Might have known what you would find
Wish I knew what you were looking for
Might have known what you would find

Under the Milky Way tonight
Under the Milky Way tonight
Under the Milky Way tonight

            
            
Suggest correction
Creating personal tab
Creating personal tab
You can edit any tab online and save it as your Personal.

You can edit, replace or remove any tab part or add personal notes – all changes will be seen only by you.

Personal tabs can be accessed anytime from any device, even offline.
Learn more »
Give kudos to tab author, rate the tab!
1 2 3 4 5
comments
print report bad tab
guest
You may want to rate the tab now too:
select rating
Wanna post a correction for this tab? Suggest correction