Oops, an error
Loading. Please wait.

Arrival Of The Birds intro tab

version 1
version 1

Intro

Interactive

18,786 views 54 this week
9 commentsread comments
1 2 3 4 5
x 15
add to favorites
×
Save as Personal and add changes to this tab that will be seen only by you. Learn more ›
×
You can save this tab as Personal to edit and correct it or add notes. All changes will be seen only by you. Learn more »
launch autoscroll
font size
0
reset
how to read this tab
guitar tuner
edit
Autoscroll
slow
fast
+/-
esc
set tempo
stop
FROM: Dino K. Lauando

I've tried my best to tab the intro to "Arrival of The Birds" by the Cinematic
Orchestra. I couldn't really tab the rest of the song because the guitar sort of fades, 
and then
becomes difficult to hear. I searched all over the internet for these tabs but no one 
seems to have them up, so here is my attempt. I think its about the same. I hope this helps
someone! Please email me at lauandok1590@gmail.com if you found this helpful!

**Tuning: Half-Step Down

**Capo on the 5th Fret

(Repeat this part 4 times)

D#|------------------|------------------|----------1-1----|
A#|--3---3---3---3---|--3---3---3---3---|--3---2h3--------|
F#|----4---4---4---4-|----4---4---4---4-|----4------------|
C#|------------------|------------------|-----------------| 
G#|------------------|------------------|-----------------|
D#|------------------|------------------|-----------------|(x4)

(This is the part where the piano comes in)

D#|--------2-----|--------2-----|--------2-----|--------2-----|
A#|----2-3---3-2-|----2-3---3-2-|----2-3---3-2-|----2-3---3-2-|
F#|--4-----------|--2-----------|--0-----------|--0-----------|
C#|--------------|--------------|--------------|--------------|
G#|--------------|--------------|--------------|--------------|
D#|--------------|--------------|--------------|--------------|

D#|--------2-----|--------2-----|--------2-----|--------2-----|
A#|----2-3---3-2-|----2-3---3-2-|----2-3---3-2-|----2-3---3-2-|
F#|--4-----------|--2-----------|--0-----------|--0-----------|
C#|--------------|--------------|--------------|--------------|
G#|--------------|--------------|--------------|--------------|
D#|--------------|--------------|--------------|--------------|

D#|--------2-----|--------2-----|--------2-----|--------2-----|
A#|----2-3---3-2-|----2-3---3-2-|----2-3---3-2-|----2-3---3-2-|
F#|--------------|--------------|--------------|--------------|
C#|--0-----------|--0-----------|--2-----------|--2-----------|
G#|--------------|--------------|--------------|--------------|
D#|--------------|--------------|--------------|--------------|

(Then comes the string instruments)


**This is as far as I got. I imagine you repeat this a couple more times, then the
guitar starts doing something different. I'll leave it for you guys to figure out!



************************************

| h  Hammer-on

************************************

            
            
Suggest correction
Creating personal tab
Creating personal tab
You can edit any tab online and save it as your Personal.

You can edit, replace or remove any tab part or add personal notes – all changes will be seen only by you.

Personal tabs can be accessed anytime from any device, even offline.
Learn more »
comments
print report bad tab
9 comments total. Showing first comments.
+1 reply
Rarrlow 2,233 Aug 02, 2014 01:25 PM

I think this is what plays right after the part you tabbed:

e--------2-----|--------2-----|--------2-----|--------2-----|
B----2-3---3-2-|----2-3---3-2-|----2-3---3-2-|----2-3---3-2-|
G--------------|--------------|--------------|--0-----------|
D--4-----------|--4-----------|--5-----------|--------------|
A--------------|--------------|--------------|--------------|
E--------------|--------------|--------------|--------------|


Great work by the way. Beautiful piece.

-2 reply
foreverpotatos1 10 Jun 28, 2015 07:02 AM

i dont know how to make tabs but i think i figured the next part
e----------------------2------2------2-----------3-------3-----3------3--
b-3------3------3--------------------------------------------------------
g-----4-----4------4-------4------4-------4-----------4-----4------4-----
d------------------------------------------------5-----------------------
a-2--------------------5-------------------------------------------------
e------------------------------------------------------------------------

e--6------6------6-------7---3---9|---5----7---10---11----15---10--8
b-------------------------------------------------------------------
g------4-----4------4-----------------------------------------------
d--7----------------------------------------------------------------
a-------------------------------------------------------------------
e-------------------------------------------------------------------

-1 reply
foreverpotatos1 10 Jun 28, 2015 07:03 AM

and same here it's super helpful thanks for uploading ! i hope somone will figure out the rest

guest
Wanna post a correction for this tab? Suggest correction