Oops, an error
Loading. Please wait.

Necrology tab

version 1
version 1

Whole song

  • As played by Stuart McCallum on the album In Motion #1.

Interactive

19 views 1 this week
no commentswrite comment
1 2 3 4 5
3 more votes to show rating
add to favorites
×
Save as Personal and add changes to this tab that will be seen only by you. Learn more ›
×
You can save this tab as Personal to edit and correct it or add notes. All changes will be seen only by you. Learn more »
launch autoscroll
font size
0
reset
how to read this tab
guitar tuner
edit
Autoscroll
slow
fast
+/-
esc
set tempo
stop
About this tab version
As played by Stuart McCallum on the album In Motion #1. Was this info helpful? Yes No
(Guitar 1)
(The electric guitar comes in at 2:46. I count by 10-10-9-7-4 to time the chord changes.)

  (Repeat the arpeggio 10 times)                              (Repeat the arpeggio 10 times)
e|5-----5-----5-----5-----5-----5-----5-----5-----5-----5-----7-----7-----7-----7-----7-----|
B|--3-----3-----3-----3-----3-----3-----3-----3-----3-----3-----5-----5-----5-----5-----5---|
G|----5-----5-----5-----5-----5-----5-----5-----5-----5-----5-----5-----5-----5-----5-----5-|
D|------------------------------------------------------------------------------------------|
A|------------------------------------------------------------------------------------------|
E|------------------------------------------------------------------------------------------|

 (Notice the transitions as you change chords, as the picking order switches)
e|7-----7-----7-----7-----7-------8---8-----8-----8-----8-----8-----8-----8-----8-------7---|
B|--5-----5-----5-----5-----5-------5---5-----5-----5-----5-----5-----5-----5-----5-------6-|
G|----5-----5-----5-----5-----5-7---------7-----7-----7-----7-----7-----7-----7-----7-7-----|
D|------------------------------------------------------------------------------------------|
A|------------------------------------------------------------------------------------------|
E|------------------------------------------------------------------------------------------|

e|--7-----7-----7-----7-----7-----7-----7-----7-----7-----7---|
B|----6-----6-----6-----6-----6-----6-----5-5---5-5---5-5---5-|
G|7-----7-----7-----7-----7-----7-----7-----------------------|
D|------------------------------------------------------------|
A|------------------------------------------------------------|
E|------------------------------------------------------------|

Back to the first bar and repeat 3 more times.

(Guitar 2)
(At 3:08 and 3:38. It seems to be played on an acoustic guitar. You can also play a Dm chord.)
e|1-|
B|3-|
G|--|
D|--|
A|--|
E|--|

(At 3:46, it choruses with the first guitar with the following arpeggios, with an electric guitar.
Count by 10-10-9-9-2 to time the chord changes.)

 (Repeat the first 2 arpeggios 10 times.)
e|0-----0-----0-----0-----0-----0-----0-----0-----0-----0-----------------------------------|
B|------------------------------------------------------------1-----1-----1-----1-----1-----|
G|--2-----2-----2-----2-----2-----2-----2-----2-----2-----2-----4-----4-----4-----4-----4---|
D|----3-----3-----3-----3-----3-----3-----3-----3-----3-----3-----2-----2-----2-----2-----2-|
A|------------------------------------------------------------------------------------------|
E|------------------------------------------------------------------------------------------|

                               (The third and fourth arpeggios are only played 9 times.)
e|------------------------------------------------------------------------------------------|
B|1-----1-----1-----1-----1-----1-----1-----1-----1-----1-----1-----1-----1-----1-----6-----|
G|--4-----4-----4-----4-----4-----2-----2-----2-----2-----2-----2-----2-----2-----2-----4---|
D|----2-----2-----2-----2-----2-----2-----2-----2-----2-----2-----2-----2-----2-----2-----5-|
A|------------------------------------------------------------------------------------------|
E|------------------------------------------------------------------------------------------|

                           (The final arpeggio is played twice)
e|------------------------------------------------------------|
B|6-----6-----6-----6-----6-----6-----6-----6-----5-----5-----|
G|--4-----4-----4-----4-----4-----4-----4-----4-----4-----4---|
D|----5-----5-----5-----5-----5-----5-----5-----5-----5-----5-|
A|------------------------------------------------------------|
E|------------------------------------------------------------|

(Repeat one more time from the top.)

            
            
Suggest correction
Creating personal tab
Creating personal tab
You can edit any tab online and save it as your Personal.

You can edit, replace or remove any tab part or add personal notes – all changes will be seen only by you.

Personal tabs can be accessed anytime from any device, even offline.
Learn more »
Give kudos to tab author, rate the tab!
1 2 3 4 5
comments
print report bad tab
guest
You may want to rate the tab now too:
select rating
Wanna post a correction for this tab? Suggest correction