Oops, an error
Loading. Please wait.

Keep Forgetting bass

4,289 views 3 this week
no commentswrite comment
1 2 3 4 5
2 more votes to show rating
add to favorites
×
Save as Personal and add changes to this tab that will be seen only by you. Learn more ›
×
You can save this tab as Personal to edit and correct it or add notes. All changes will be seen only by you. Learn more »
launch autoscroll
font size
0
reset
guitar tuner
edit
Autoscroll
slow
fast
+/-
esc
set tempo
stop
Author
Difficulty
Title: Keep Forgetting
Artist: The Cinematics
Album: A Strange Education 
Tabbed by the99thaisle on 4/8/8

Intro [bass comes in at 0:12]
G:|-----------------------------------------------------------------|
D:|-----------------------------------------------------------------|
A:|-----------------------------------------------------------------|
E:|-----------------------------------------------------------------|

G:|-----------------------------------------------------------------|
D:|-----------------------------------------------------------12--12|
A:|-----------------------------------------------------------------|
E:|-----------------------------------------------------------------|

Verse Riff 1 [0:13]
G:|-----1010----------------------------1010------------------------|
D:|---12------12--------1010----------12------12--------1010--------|
A:|-------------1010--8-------8-----------------1010--8-------8-----| x7
E:|-----------------------------1010----------------------------1010|

Verse Riff 2 [1:00] "The street's on fire"
G:|-----1012----------------------------1012------------------------|
D:|---12----1212--------1010----------12----1212--------1010--------|
A:|-------------1010--8-----8-------------------1010--8-----8-------| x2
E:|-----------------------------1010----------------------------1010|

Prechorus [1:13] "They'll push you down again"
G:|-----------------------------------------------------------------|
D:|-----------------------------------------------------------------|
A:|-----------------------------------------------------------------|
E:|-3---3---3---3---1---1---1---1-/-8---8---8---8---8---8---8-5-5-5-|

Chorus [1:19]
G:|-----------------------------------------------------------------|
D:|-----------------------3-3-3-3-3-----------------------3-3-3-5-5-|
A:|-1-1-1-1-1-1-1-1-5-5-5-----------3-3-3-3-3-3-3-3-5-5-5-----------|
E:|-----------------------------------------------------------------|

G:|-----------------------------------------------------------------|
D:|-----------------------3-3-3-3-3---------------------------------|
A:|-1-1-1-1-1-1-1-1-5-5-5-----------3-3-3-3-3-3-3-3-3-3-3-3-3-3-3-3-|
E:|-----------------------------------------------------------------|

Verse Riff 1 [1:32] x4

Verse Riff 2 [1:59] x2

Prechorus [2:12] "They'll push you down again"
G:|-----------------------------------------------------------------|
D:|-----------------------------------------------------------------|
A:|-----------------------------------------------------------------|
E:|-3---3---3---3---1---1---1---1-/-8---8---8---8---8---8---6---5-\-|

"They'll push you down again"
G:|-----------------------------------------------------------------|
D:|-----------------------------------------------------------------|
A:|-----------------------------------------------------------------|
E:|-3---3---3---3---1---1---1---1-/-8---8---8---8---8---8---8-5-5-5-|

Chorus [2:25]

Bridge [2:39]
G:|-----------------------3-3-3-2-2-----------------------5-5-5-3-3-|
D:|-5-5-5-5-5-5-5-5-5-5-5-----------3-3-3-3-3-3-3-3-3-3-3-----------|
A:|-----------------------------------------------------------------|
E:|-----------------------------------------------------------------|

G:|-----------------------------------------------------------------|
D:|-------------------------7---7-----------------------------------|
A:|-5-5-5-5-5-5-5-5-5-5-5-5---5---5-3-3-3-3-3-3-3-3-3-3-3-3-3-3-3-3-|
E:|-----------------------------------------------------------------|

G:|-------------------------3-3-2-2-------------------------5-5-3-3-|
D:|-5-5-5-5-5-5-5-5-5-5-5-5---------3-3-3-3-3-3-3-3-3-3-3-3---------|
A:|-----------------------------------------------------------------|
E:|-----------------------------------------------------------------|

G:|-----------------------------------------------------------------|
D:|-------------------------7---7-----------------------------------|
A:|-5-5-5-5-5-5-5-5-5-5-5-5---5---5-3-3-3-3-3-3-3-3-3-3-3-3-0-0-0-0-|
E:|-----------------------------------------------------------------|

G:|-----------------------------------------------------------------|
D:|-----------------------------------------------------------------|
A:|-1-1-1-1-1-1-1-1-5-5-5-1-1-1-5-5-3-3-3-3-3-3-3-3-5-5-5-3-3-3-5-5-|
E:|-----------------------------------------------------------------|

G:|-----------------------------------------------------------------|
D:|---------------------------------------------------------3-3-5-5-|
A:|-1-1-1-1-1-1-1-1-5-5-5-1-1-1-5-5-3-3-3-3-3-3-3-3-3-3-5-5---------|
E:|-----------------------------------------------------------------|

Modified Chorus Riff [3:19]
G:|-----------------------------------------------------------------|
D:|-----------------------3-3-3-3-3-----------------------3-3-3-5-5-|
A:|-1-1-1-1-1-1-1-1-5-5-5-----------3-3-3-3-3-3-3-3-5-5-5-----------|
E:|-----------------------------------------------------------------|

G:|-----------------------------------------------------------------|
D:|-----------------------3-3-3-3-3-------------------------3-3-5-5-|
A:|-1-1-1-1-1-1-1-1-5-5-5-----------3-3-3-3-3-3-3-3-3-3-5-5---------|
E:|-----------------------------------------------------------------|

G:|-----------------------------------------------------------------|
D:|-----------------------3-3-3-3-3-----------------------3-3-3-5-5-|
A:|-1-1-1-1-1-1-1-1-5-5-5-----------3-3-3-3-3-3-3-3-5-5-5-----------|
E:|-----------------------------------------------------------------|

G:|-----------------------------------------------------------------|
D:|-----------------------3-3-3-3-3---------------------------------|
A:|-1-1-1-1-1-1-1-1-5-5-5-----------3-3-3-3-3-3-3-3-3-3-3-3-4-4-4-4-|
E:|-----------------------------------------------------------------|

Ending [3:45]
G:|-----------------------------------------------------------------|
D:|-----------------------------------------------------------------|
A:|-5-------5-------5-------5-------5-------------------------------|
E:|-----------------------------1-----------------------------------|

I hope you find this tab useful, and please rate! - the99thaisle

            
            
Suggest correction
Creating personal tab
Creating personal tab
You can edit any tab online and save it as your Personal.

You can edit, replace or remove any tab part or add personal notes – all changes will be seen only by you.

Personal tabs can be accessed anytime from any device, even offline.
Learn more »
Give kudos to tab author, rate the tab!
1 2 3 4 5
comments
print report bad tab
guest
You may want to rate the tab now too:
select rating
Wanna post a correction for this tab? Suggest correction