Oops, an error
Loading. Please wait.

Barton Hollow Tab

version 4
version 4

Whole song

Interactive

17,348 views 3 this week
4 commentsread comments
1 2 3 4 5
please rate
add to favorites
launch autoscroll
font size
0
reset
how to read this tab
guitar tuner
Autoscroll
slow
fast
+/-
esc
set tempo
stop
Help us to improve Ultimate-Guitar.com Take our survey!
×
Author
Capo
1st fret
The Civil Wars – Barton Hollow
Drop D Tuning – Capo 1st Fret.
Very simple song, but didn’t see any others that looked at all correct. This is. x

Intro:
|--0--------------------------------|
|--3--------------------------------|
|--2--------------------------------|
|--0--------------------------------|
|--0--------------------------------|
|--0--------------------------------|

Main Riff:
|------0-----x---------------------------|
|------3-----x---------------------------|
|------2-----x----2-------------2--------|
|---0--0-----x----0---0---0-----0--------|
|---3--------x----0---3b4-0-0---0--------|
|------------x--------------3b4-0--------|

Interlude 1:
|--0--------------------------------|
|--3--------------------------------|
|--2--------------------------------|
|--0--------------------------------|
|--0--------------------------------|
|--0--------------------------------|

Interlude 2:
|--0-----------------x-0--------0--0-0-0-x-0--------|
|--3--------3--3-3-3-x-3--------3--3-3-3-x-3--------|
|--3--------3--3-3-3-x-2--------2—-2-2-2-x-3--------|
|--3--------3--3-3-3-x-0--------0—-0-0-0-x-3--------|
|--1--------1--1-1-1-x-0--------0—-0-0-0-x-1--------|
|----------------------0--------0—-0-0-0-x----------|


|--0----------0--------|
|--3--3-3-3-x-2--------|
|--3--3-3-3-x-2--------|
|--3--3-3-3-x-2--------|
|--1--1-1-1-x-0--------|
|----------------------|

Interlude 3: x3
|-1-1-1-1-------------------------|
|-3-3-3-3-3-3-3-3-3-3-3-3-3-3-3-3-|
|-2-2-2-2-2-2-2-2-0-0-0-0-3-3-3-3-|
|-0-0-0-0-0-0-0-0-0-0-0-0-3-3-3-3-|
|---------3-3-3-3-2-2-2-2-1-1-1-1-|
|---------------------------------|

End:
|-0-0-0-0-0-0-0-0-0-0-0-0-0--0--------|
|-2-2-2-2-2-2-2-2-2-2-2-2-2—-3--------|
|-2-2-2-2-2-2-2-2-2-2-2-2-2—-2--------|
|-2-2-2-2-2-2-2-2-2-2-2-2-2—-0--------|
|-0-0-0-0-0-0-0-0-0-0-0-0-0--0--------|
|----------------------------0--------|
Suggest correction
Give kudos to tab author, rate the tab!
1 2 3 4 5
comments
print report bad tab
4 comments total. Showing first comments.
+1 reply
Jedwardferguson 103 wrote on May 7 2012, 11:32 pm

This is excellent, but i disagree with the capo when referencing the official recording.

0 reply
project 114 10 wrote on July 31 2012, 11:14 am

i use the capo but almost directly on top of the nut.

0 reply
srvcoldshot 10 wrote on August 16 2012, 11:48 am

This is absolutely Not right. It's played in "open D". Not standard tuning with "dropped D"

guest
You may want to rate the tab now too:
select rating
Wanna post a correction for this tab? Suggest correction