Oops, an error
Loading. Please wait.

Billy Jean Tab

82,789 views 183 this week
1 commentread comment
1 2 3 4 5
x 29
add to favorites
launch autoscroll
font size
0
reset
how to read this tab
guitar tuner
Autoscroll
slow
fast
+/-
esc
set tempo
stop
Help us to improve Ultimate-Guitar.com Take our survey!
×
Author
Sucked to notice that there is no Billie Jean tab! Transcribed it as best I could. My 
first tab, so bear with me. If you spot anything wrong, please contact me on rasmus2u@hotmail.com
Update: Cheers to Jarrod Stockwell for bringing feedback on chord section. I 
believe the tab is great now, but if you've got any suggestions for update, mail me.
Standard tuning and no capo


[Intro part 1]

                                     let ring
E|------0---------------------0------5--------------------------------------|
A|------0---------3----0------0------5--------------------------------------|
D|---------0------4----0---------0------------------------------------------|
G|--------------4-----------------------------------------------------------|
B|----------2---------------------2-----------------------------------------|
E|---0---------------------0------------------------------------------------|


[Intro part 2] (as well as Verse part1 - just repeat it in verses)
                               dont let ring
E|------0----------------------0--------------------------------------------|
A|------0---------3----0-------0--------------------------------------------|
D|---------0------4----0-----0-----0----------------------------------------|
G|--------------4-----------------------------------------------------------|
B|----------2---------------------------------------------------------------|
E|---0---------------------0--------0---------------------------------------|


[Verse part 2] (I am the oooone...)

E|--------------------------------------------------------------------------|
A|--------1p0---------0-----1---0-------------------------------------------|
D|--------2-----------0-----2---0-------------------------------------------|
G|------2-----------2-------------------------------------------------------|
B|--0----------0---------0--------------------------------------------------|
E|---------------0------------0---------------------------------------------|

                                   dont let ring
E|------0---------5----0-------0--------------------------------------------|
A|------0---------5----0-------0--------------------------------------------|
D|---------0----0------------0----0-----------------------------------------|
G|--------------------------------------------------------------------------|
B|--------------------------------------------------------------------------|
E|---0------0--------------0-------0----------------------------------------|


[Chorus]

C
People always told me
Em
Be careful what you do
C                                        Em
Don't go around breaking young girls' hearts
C
And mama always told me
Em
Be careful who you love
Am
Be careful what you do
B
Because a lie becomes the truth
Suggest correction
comments
print report bad tab
1 comment total.
0 reply
buoyancyofcitrus 30 Feb 10, 2016 01:25 PM

I believe that the end of the intro goes like this.

e|----0-------5-0--
B|----0-------5-0--
G|------0---2------
D|-----------------
A|--------2--------
E|--0--------------

He bars the second fret and plays the second fret on the G string before the 2 note chord on the e and B on the fifth fret. He then plays an open e and B before starting over at the beginning

guest
You may want to rate the tab now too:
select rating
Wanna post a correction for this tab? Suggest correction