Oops, an error
Loading. Please wait.

Birds Of A Feather Tab

14,942 views 15 this week
no commentswrite comment
1 2 3 4 5
excellent!
x 6
add to favorites
launch autoscroll
font size
0
reset
how to read this tab
guitar tuner
Autoscroll
slow
fast
+/-
esc
set tempo
stop
Help us to improve Ultimate-Guitar.com Take our survey!
×
Contributor
Difficulty
intermediate
-------------------------------------------------------------------------------
                             Birds of a Feather - Civil Wars
-------------------------------------------------------------------------------
Tabbed by: Dipendra Bagchee
Email: dbagchee@rocketmail.com

Tuning: DADGAD

Intro/Verse

D|------0---0----0---0---0---|------0---0----0---0---0---|------0---0--------0---0---|
A|------12--12---12--12--12--|------12--12---12--12--12--|------12--12-------12--12--|
G|------11--11---11--11--11--|------10--10---10--10--10--|------0---0--------0---0---|
D|------12--12---12--12--12--|------12--12---12--12--12--|------12--12-------12--12--|
A|-0-------------------------|-0-------------------------|---------------------------|
D|-0-------------------------|-0-------------------------|-10-----------9------------|


D|------0---0----0---0---0---|
A|------12--12---12--12--12--|
G|------11--11---11--11--11--|
D|------12--12---12--12--12--|
A|-0-------------------------|
D|-0-------------------------|

Chorus

D|-0----0---0----0---0---0---|-0----0---0----0---0---0---|
A|-5----5---5----5---5---5---|-3----3---3----3---3---3---|
G|-0----0---0----0---0---0---|-2----2---2----2---2---2---|
D|-0----0---0----0---0---0---|-0----0---0----0---0---0---|
A|---------------------------|---------------------------|
D|-5----5---5----5---5---5---|-3----3---3----3---3---3---|


D|---------------------------|---------------------------|-0----0---0----0---0---0---|
A|---------------------------|---------------------------|---------------------------|
G|-7----7---7----7---7---7---|-5----5---5----5---5---5---|-7----7---7----7---7---7---|
D|---------------------------|---------------------------|-0----0---0----0---0---0---|
A|-5----5---5----5---5---5---|-3----3---3----3---3---3---|---------------------------|
D|-0----0---0----0---0---0---|-0----0---0----0---0---0---|-8----8---8----8---8---8---|


D|-0----0---0----0---0---0---|---------------------------|---------------------------|
A|-0----0---0----0---0---0---|---------------------------|---------------------------|
G|-0----0---0----0---0---0---|-0----0---0----0---0---0---|-0----0---0----0---0---0---|
D|-0----0---0----0---0---0---|-2----2---2----2---2---2---|-2----2---2----2---2---2---|
A|---------------------------|-3----3---3----3---3---3---|-4----4---4----4---4---4---|
D|-5----5---5----5---5---5---|---------------------------|---------------------------|

Bridge (ends with Chorus part)

D|---------------------------|---------------------------|---------------------------|
A|---------------------------|---------------------------|---------------------------|
G|-7----7----7---7---7---7---|-5----5----5---5---5---5---|-3----3----3---3---3---3---|
D|---------------------------|---------------------------|---------------------------|
A|-5----5----5---5---5---5---|-3----3----3---3---3---3---|-1----1----1---1---1---1---|
D|-0----0----0---0---0---0---|-0----0----0---0---0---0---|-0----0----0---0---0---0---|


D|---------------------------|
A|---------------------------|
G|-10---10--10--9----9---9---|
D|---------------------------|
A|-8----8---8---7----7---7---|
D|-0----0---0---0----0---0---|

Outro

D|-------------|-------------|-------------|-------------|-------------|
A|------0------|------0------|------0------|------0------|-------------|
G|------9------|------7------|------7------|------6------|-------------|
D|-------------|-------------|-------------|-------------|-------------|
A|-------------|-------------|-------------|-------------|-------------|
D|-10----------|-9-----------|-8-----------|-7-----------|-------------|
comments
print report bad tab
I want to post or [tab]
guest
You may want to rate the tab now too:
select rating
Please do not post tabs as comments. Select "correction" instead!