Oops, an error
Loading. Please wait.

Cest La Mort Tab

version 1
version 1

Whole song

7,221 views 9 this week
no commentswrite comment
1 2 3 4 5
excellent!
x 6
add to favorites
launch autoscroll
font size
0
reset
how to read this tab
guitar tuner
Autoscroll
slow
fast
+/-
esc
set tempo
stop
Help us to improve Ultimate-Guitar.com Take our survey!
×
Author
Difficulty
Tuning
novice
D A D G B E
-------------------------------------------------------------------------------
                             C'est La Mort - The Civil Wars
-------------------------------------------------------------------------------
Tabbed by: Rob Hinst
E-mail: rob@hinst.net

Tuning: Drop D

Intro

Play 8 times:
e|----------------12-----12------|
B|-10----------------------------|
G|-----11--9--11-----11------11--|
D|-------------------------------|
A|-------------------------------|
E|-------------------------------|


Then:

    "Don't go without me"
e|-------------------------------|
B|-------------------------------|
G|---12----11--------------------|
D|-------------------------------|
A|-------------------------------|
E|-------------------------------|

Verse 1

Play 5 times:
(palm muted)
e|--------------------------|--------------------------|
B|--------------------------|--------------------------|
G|--7--7--7--7-/11-11-11-11-|-\6--6--6--6-/9--9--9--9--|
D|--------------------------|--------------------------|
A|--5--5--5--5-/9--9--9--9--|-\4--4--4--4-/7--7--7--7--|
E|--0--0--0--0-/0--0--0--0--|-\0--0--0--0-/0--0--0--0--|

Then:

    "Don't go without me"
e|------------------------------|
B|------------------------------|
G|---4--------------------------|
D|---5-----4--------------------|
A|------------------------------|
E|---5-----5--------------------|

Chorus

e|--------------------------|--------------------------|
B|--------------------------|--------------------------|
G|--3--3--3--3--3--3--3--3--|--4--4--4--4--4--4--3--2--|
D|--4--4--4--4--4--4--4--4--|--5--5--5--5--5--5--4--3--|
A|--------------------------|--------------------------|
E|--4--4--4--4--4--4--4--4--|--5--5--5--5--5--5--4--3--|

e|--------------------------|--------------------------|
B|--------------------------|--------------------------|
G|--1--1--1--1--1--1--1--1--|--6--6--6--6--6--6--6--4--|
D|--2--2--2--2--2--2--2--2--|--7--7--7--7--7--7--6--5--|
A|--------------------------|--------------------------|
E|--2--2--2--2--2--2--2--2--|--7--7--7--7--7--7--6--5--|

e|--------------------------|--------------------------|
B|--------------------------|--------------------------|
G|--3--3--3--3--3--3--3--3--|--4--4--4--4--4--4--3--2--|
D|--4--4--4--4--4--4--4--4--|--5--5--5--5--5--5--4--3--|
A|--------------------------|--------------------------|
E|--4--4--4--4--4--4--4--4--|--5--5--5--5--5--5--4--3--|

e|--------------------------|--------------------------|
B|--------------------------|--------------------------|
G|--1--1--1--1--1--1--1--1--|--6--6--6-----4--4--4-----|
D|--2--2--2--2--2--2--2--2--|--7--7--7-----5--5--5-----|
A|--------------------------|--------------------------|
E|--2--2--2--2--2--2--2--2--|--7--7--7-----5--5--5-----|

e|--------------0-----------|
B|--------------0-----------|
G|--3--3--3-----------------|
D|--4--4--4-----2-----------|
A|--------------------------|
E|--4--4--4-----0-----------|

Verse 2

Play twice:
(palm muted)
e|--------------------------|--------------------------|
B|--------------------------|--------------------------|
G|--7--7--------11-11-------|--6--6--------9--9--------|
D|--------------------------|--------------------------|
A|--5--5--------9--9--------|--4--4--------7--7--------|
E|--0--0--------0--0--------|--0--0--------0--0--------|

Play twice
(not palm muted)
e|--------------------------|--------------------------|
B|--------------------------|--------------------------|
G|--7--7--7--7-/11-11-11-11-|-\6--6--6--6-/9--9--9--9--|
D|--------------------------|--------------------------|
A|--5--5--5--5-/9--9--9--9--|-\4--4--4--4-/7--7--7--7--|
E|--0--0--0--0-/0--0--0--0--|-\0--0--0--0-/0--0--0--0--|

Then:

    "Don't go"                     "Please don't go"
e|------------------------------|--------------------------|
B|------------------------------|--------------------------|
G|---4--------------------------|--------------------------|
D|---5-----4--------------------|--------------------------|
A|------------------------------|--------------------------|
E|---5-----5--------------------|--------------------------|


    "Don't go without me"
e|------------------------------|
B|------------------------------|
G|---4--------------------------|
D|---5-----4--------------------|
A|------------------------------|
E|---5-----5--------------------|


************************************

| /   slide up
| \   slide down

************************************
Suggest correction
comments
print report bad tab
guest
You may want to rate the tab now too:
select rating
Please do not post tabs as comments. Select "correction" instead!