Oops, an error
Loading. Please wait.

Dance Me To The End Of Love Tab

version 2
version 2

Whole song

2,636 views 15 this week
no commentswrite comment
1 2 3 4 5
excellent!
x 4
add to favorites
launch autoscroll
font size
0
reset
how to read this tab
guitar tuner
Autoscroll
slow
fast
+/-
esc
set tempo
stop
Help us to improve Ultimate-Guitar.com Take our survey!
×
Capo
5th fret
capo 5th fret
Intro
e|-0--0---0--0--0---00-00-00-0000-----------------------|
B|-3/-1---3/-1--3---00-00-00-0000----0---0----0----0----|
G| 4/-2---4/-2--4---00-00-00-0002----2---2----2----2----|
D|-0--0---0--0--0---44-22-44-2222----1---1----1----1----|
A|------------------22-22-22-2222--0h2---0--0h2----0----|
E|-------------------------------------0h2-------0h2----|

Listen for strumming pattern
e|-000000--0000000-------------------------------------------------|
B|-000000--0000000-------------------------------------------------|
G|-000000--2222222-------------------------------------------------|
D|-222222--1111111-------------------------------------------------|
A|-222222--2222222-------------------------------------------------|
E|-----------------------------------------------------------------|
verses and chorus

e|-0---0---0----0----0--0------------------------------------|
B|-1---0---0----0----0--0------------------------------------|
G|-2---0---2----2----2--0------------------------------------|
D|-2---2---1----1--- 1--2------------------------------------|
A|-----2---2--0h2----0--2------------------------------------|
E|-----------------0h2---------------------------------------|
comments
print report bad tab
I want to post or [tab]
guest
You may want to rate the tab now too:
select rating
Please do not post tabs as comments. Select "correction" instead!