Oops, an error
Loading. Please wait.

Dance Me To The End Of Love chords

version 3
version 3

Whole song

  • Complete lyrics, corrected tablature guide for melodic part, formatting.
726 views 9 this week
2 commentsread comments
1 2 3 4 5
x 3
add to favorites
×
Save as Personal and add changes to this tab that will be seen only by you. Learn more ›
×
You can save this tab as Personal to edit and correct it or add notes. All changes will be seen only by you. Learn more »
launch autoscroll
font size
0
reset
transpose
0
reset
simplify chords
display chords
guitar tuner
edit
Autoscroll
slow
fast
+/-
esc
set tempo
stop
About this tab version
Complete lyrics, corrected tablature guide for melodic part, formatting. Was this info helpful? Yes No
Strumming
There is no strumming pattern for this song yet. and get +5 IQ
The Civil Wars - Dance Me To The End Of Love  (Leonard Cohen)
Capo 5th    

Intro
  Am           |              |Em           |              |
e-0---0-------0|0---0---0----0|0---0-------0|0---0---0-----|
B-3\1-1-------3|3\1-1/3-3----0|0---0-------0|0---0---0-----|
G-4\2-2-------4|4\2-2/4-4----2|2\--0-------2|2\--0/2-2-----|
D-0---0-------0|0---0---0----4|4\2-2-------4|4\2-2/4-4-----|
A--------------|--------------|-------------|--------------|
E--------------|--------------|-------------|--------------|
 B7              |                |Em              |                ||
-----2-2-----2-2-|----2-2-----2-2-|----0-0-----0-0-|----0-0-----0-0-|
-----0-0-----0-0-|----0-0-----0-0-|----0-0-----0-0-|----0-0-----0-0-|
-----2-2-----2-2-|----2-2-----2-2-|----0-0-----0-0-|----0-0-----0-0-|
-----1-1-----1-1-|----1-1-----1-1-|----2-2-----2-2-|----2-2-----2-2-|
-2---------------|2---------------|--------2-------|--------2-------|
---------2-------|--------2-------|0---------------|0---------------|

Verse 1
 Am                             Em
 Dance me to your beauty with a burning violin 
 Am                                  Em
 Dance me through the panic 'til I'm gathered safely in 
 Am                               Em
 Lift me like an olive branch and be my homeward dove 
    B7                     Em
 And dance me to the end of love 
       B7                   Em
 Please dance me to the end of love 

     Am                              Em
 Oh, let me see your beauty when the witnesses are gone 
 Am                            Em
 Let me feel you moving like they do in Babylon 
       Am                       Em
 Ooh, show me slowly what I only know the limits of 
    B7                     Em
 And dance me to the end of love 
       B7                   Em
 Please dance me to the end of love 


Interlude   Am     |       |Em    |       |B7    |      |Em    |     ||
           Lala,   lalalah, lala, lalalah, lala   La lah lah

Verse 2
 Am                              Em
 Dance me to the wedding now, oh dance me on and on 
     Am                         Em
 And dance me very tenderly and dance me very long 
       Am                                 Em
 We're both of us beneath our love, we're both of us above 
      B7                   Em
 And dance me to the end of love 
            B7                 Em
 Won't you dance me to the end of love 


Outro     Am     |       |Em    |       |B7    |      |Em    
         Lala,   lalalah, lala, lalalah, lala   La lah lah
Suggest correction
Creating personal tab
Creating personal tab
You can edit any tab online and save it as your Personal.

You can edit, replace or remove any tab part or add personal notes – all changes will be seen only by you.

Personal tabs can be accessed anytime from any device, even offline.
Learn more »
Give kudos to tab author, rate the tab!
1 2 3 4 5
comments
print report bad tab
2 comments total.
0 reply
willowmouth [tm] 7,463 Jul 25, 2016 05:34 AM

once again


e|-0---0--(0)------|----0---------|---------------0|0---0---0-----|
B|-0---0--(0)-----0|0---0---0-----|------(0)------0|0---0---0-----|
G|-7\5-5--(5)-----7|7\5-5/7-7----0|0---0-(0)------0|0\--0---0-----|
D|-9\7-7----------9|9\7-7/9-9----0|7\5-7-(5)------7|7\5-5/7-7-----|
A|-0---0----------0|0-------0----0|9\7-9----------9|9\7-7/9-9-----|
E|-----------------|--------------|0---0----------0|0---0---0-----|

e|-----------------|------0-----0-0-0|------0-0--0-0-|----0------0-|
B|-----0-0-------0-|----0-0-----0-0-0|----0-0-0--0-0-|----0---0--0-|
G|-----2-2-----2---|----2-2-----2-2-2|----0-0-0--0-0-|--0-0---0--0-|
D|-----1-1-----1---|----1-------1-1-1|----2------2-2-|--2-2---2--2-|
A|-2---------------|2----------------|2----------2-2-|2---2---2----|
E|---------2-------|--------2--------|0--------------|0------------|

guest
You may want to rate the tab now too:
select rating
Wanna post a correction for this tab? Suggest correction