Oops, an error
Loading. Please wait.

Disarm tab

11,452 views 27 this week
no commentswrite comment
1 2 3 4 5
x 8
add to favorites
×
Save as Personal and add changes to this tab that will be seen only by you. Learn more ›
×
You can save this tab as Personal to edit and correct it or add notes. All changes will be seen only by you. Learn more »
launch autoscroll
font size
0
reset
how to read this tab
guitar tuner
edit
Autoscroll
slow
fast
+/-
esc
set tempo
stop
The Civil Wars
Disarm by The Smashing Pumpkins Cover
The Civil Wars

Tabbed by: Aaron91

Tuning: Standard
Capo: 7th Fret

**Edited: Intro/Verse/Outro - September 27, 2013**
**Edited: Chorus - September 27, 2013**



Intro/Verse/Outro:

  Am                          F
|--------0---0-----0---0------------0---3p0--------|
|--0h1---------1--------------0h1-------------3p0--|
|--------------------------------------------------|
|------2---2-----2---2------------3---3-----3------|
|--0-----------0--------------0--------------------|
|--------------------------------------------------|

   C                          G(?)
|--------0---0-----0---0-------------0---0-----0---0--|
|--0h1---------1--------------1------------1----------|
|-----------------------------------------------------|
|------2---2-----2---2-------------0---0-----0---0----|
|--3-----------3--------------0h2----------2----------|
|-----------------------------------------------------|

I find that the hammer-ons and pull-offs are not consistently played, and sometimes he 
throws them in randomly, so feel free to be creative with them.


Chorus:

|------0---------0----------0---------0------|
|----------0---------0----------0---------0--|
|--------------------------------------------|
|--------------------------------------------|
|----3---3-----3---3------5---5-----5---5----|
|--1---------1----------3---------3----------|

|------0---------0------|
|----------0---------0--|
|-----------------------|
|-----------------------|
|----7---7-----7---7----|
|--5---------5----------|


I believe that the picking pattern for the chorus is something like that.
I am not 100% on it, so if anyone has any thoughts let me know.

    F  G  Am
|---1--3--5---|
|---1--3--5---|
|---2--4--5---|
|---3--5--7---|
|---3--5--7---|
|---1--3--5---|

The last chorus is strummed. If you want, you can play the G and Am chords normally, but 
the barre chords are the way that JPW plays it.


==Verse==
Disarm you with a smile
And cut you like you want me to
Cut that little child
Inside of me and such a part of you
The years burn
Ooh, the years burn

==Chorus==
I used to be a little boy
So old in my shoes
And what I choose is my choice
What's a boy supposed to do?
The killer in me is the killer in you
My love
I send this smile over to you

==Verse==
Disarm you with a smile
And leave you like they left me here
To wither in denial
The bitterness of one who's left alone
Ooh, the years burn
Ooh, the years burn, burn, burn

==Chorus==
F              G      Am
I used to be a little boy
   G         F
So old in my shoes
F                 G     Am
And what I choose is my voice
         G               F
What's a boy supposed to do?
G             Am                  F
The killer in me is the killer in you
   G
My love
            Am            F
I send this smile over to you
G             Am                  F
The killer in me is the killer in you
   G
My love
            Am            F
I send this smile over to you

==Outro==
The killer in me is the killer in you
Send this smile over to you




Leave comments and recommend changes if you'd like! I know this is not perfect, so any
help would be appreciated!

Cheers!
Suggest correction
Creating personal tab
Creating personal tab
You can edit any tab online and save it as your Personal.

You can edit, replace or remove any tab part or add personal notes – all changes will be seen only by you.

Personal tabs can be accessed anytime from any device, even offline.
Learn more »
comments
print report bad tab
guest
You may want to rate the tab now too:
select rating
Wanna post a correction for this tab? Suggest correction