Oops, an error
Loading. Please wait.

Falling Tab

version 1
version 1

Whole song

99,658 views 84 this week
2 commentsread comments
1 2 3 4 5
accurate
x 21
add to favorites
launch autoscroll
font size
0
reset
how to read this tab
guitar tuner
Tab Pro tools
  • play this tab
  • loop segment
  • change instrument
  • show fretboard
  • metronome
×
Best way to learn
"Falling"
Autoscroll
slow
fast
+/-
esc
set tempo
stop
Contributor
Difficulty
Capo
novice
3rd fret
The Civil Wars - Falling
+Tabbed by Kero Murugeson
+Standard tuning EADGBe
+Capo on 3rd fret

I tried finding the chords for this song, but apparently no one has posted. Therefore, I 
to tab it myself.
If you have any questions, feel free to email me at kero-13@live.com. Its another 
song by The Civil Wars. Hope you like it.

Chords used:

G/F#*|22xxxx|, D|xxx232|, Dsus|x4x232|, Em7|x22x3x|, 
Em|x22xxx|, G|32xxx3|

Intro :
|-------------------------------------------------|
|-------------------------------------------------|
|------------0-----------0-------------0----------|
|--------4-----------4--------------4-------------| play twice
|---2---------------------------0-----------4-----|
|----------------2--------------------------------|

Verse 1:

|------------------------------------------------|
|------------------------------------------------|
|------------0-----------0-------------0---------| repeat throughout verse
|--------4-----------4--------------4------------|
|---2---------------------------0-----------4----|
|----------------2-------------------------------|

Haven't you seen me sleepwalking 'cause I've been holding your hand
Haven't you noticed me drifting
Oh let me tell you I am

Tell me it's nothing
Try to convince me that I'm not drowning

G/F#*
Oh let me tell you I am


Chorus:

D       Dsus                A
Please, please tell me you know
Em
I've got to let you go
G
I can't help falling out of love with you

Verse 2:

|--------------------------------------------------------|
|--------------------------------------------------------|
|--------0---0--------0---0---------0---0--------0---0---|
|--------4---4--------4---4---------4---4--------4---4---|
|---2----------------------------0-------------4---------|
|-----------------2--------------------------------------|

Why I am feeling so guilty
Why I am holding my breath
Worry about everyone but me and I just keep losing myself

Tell me it's nothing
Try to convince me that I'm not drowning

G/F#*
Oh let me tell you I am


Repeat Chorus

Instrumental:  D, Dsus, A, Em, G


D      Dsus               A
Won't, won’t you read my mind
Em
Don't you make me like you
G
And I hear


Repeat Chorus:


D       Dsus                A
Please, please tell me you know
Em
I've got to let you go
G
I can't help falling out of love with you


Outro (plucking pattern similar to intro):

Ooh Ooh Hmmm
Haven't you noticed.. Sleepwalking..


Kero
comments
print report bad tab
2 comments total.
+4 reply
masabb wrote on December 16 2012, 04:54 pm

this is awesome, thanks for the tabs.
The only thing is that I think that instead of
|-------------------------------------------------|
|-------------------------------------------------|
|------------0-----------0-------------0----------|
|--------4-----------4--------------4-------------|
|---2---------------------------0-----------4-----|
|----------------2--------------------------------|

It may be

|-------------------------------------------------|
|-------------------------------------------------|
|------------0-----------0-------------0----------|
|--------4-----------4--------------4-------------|
|---2---------------------------------------4-----|
|----------------2--------------0-----------------|

But other than that, this is awesome

0 reply
thuy_rex wrote on November 30 2013, 06:30 pm

It's not entirely correct, but it's pretty close. still worth learning.

I want to post or [tab]
guest
You may want to rate the tab now too:
select rating
Please do not post tabs as comments. Select "correction" instead!