Oops, an error
Loading. Please wait.

Falling Tab

version 3
version 3

Whole song

8,783 views 1 this week
no commentswrite comment
1 2 3 4 5
1 last vote to show rating
add to favorites
launch autoscroll
font size
0
reset
how to read this tab
guitar tuner
Autoscroll
slow
fast
+/-
esc
set tempo
stop
Help us to improve Ultimate-Guitar.com Take our survey!
×
Author
Capo
3rd fret
haven't found a good tab for this but this is what i came up with.

Capo 3

Intro :
|----------------------------------------------|
|----------------------------------------------|
|------------0-----------0-------------0-------|
|--------4-----------4--------------4----------| play twice
|---2--------------------------------------4---|
|----------------2--------------0--------------|



part before chorus
|---------------------------------|
|---------------------------------|
|-------------7----------6--------|
|----------0-----------0----------|
|-------4------------4------------|
|---7--------------5--------------|



D                           Asus4 (X02230)
Please, please tell me you know
     A              Em7
I've got to let you go
G
I can't help falling out of love with you



|--------------------------------------------------------|
|--------------------------------------------------------|
|--------0---0--------0---0---------0---0--------0---0---|
|--------4---4--------4---4---------4---4--------4---4---|
|---2------------------------------------------4---------|
|-----------------2--------------0-----------------------|


D                        Asus4
Won't, won't you read my mind
    A             Em7
Don't you make me lay here
    G   A11 (540055)
And die here
Suggest correction
Give kudos to tab author, rate the tab!
1 2 3 4 5
comments
print report bad tab
guest
You may want to rate the tab now too:
select rating
Wanna post a correction for this tab? Suggest correction