Oops, an error
Loading. Please wait.

If I Didnt Know Better Chords

68,892 views 93 this week
4 commentsread comments
1 2 3 4 5
excellent!
x 19
add to favorites
launch autoscroll
font size
0
reset
transpose
0
reset
display chords
guitar tuner
Autoscroll
slow
fast
+/-
esc
set tempo
stop
Help us to improve Ultimate-Guitar.com Take our survey!
×
Author
Difficulty
Capo
chrismma 291
novice
2nd fret
           
        capo 2nd fret
        
     intro: 
      
       Am
e|-------------------------------------------------------------------------|
B|-------------------------------------------------------------------------|
G|-------------------------------------------------------------------------|
D|-------------------------------------------------------------------------|
A|-------------------------------------------------------------------------|
E|-------0--0--3--3--------------------------------------------------------|
  

          repeat intro once then
      

verse:   Am

If I didn't know better I'd hang my hat right there
   E                       Am
If I didn't know better I'd follow you up the stairs
 
Stop saying those sweet things you know I like to hear
     E                            Am
The horns are blowing louder and they're destroying me
 
    
    chours:
  Dm         Am    
    Why do I keep drinking
   Dm              Am
    Wasting my time on you
       Dm       E
    If I didn't know better
    But damnit
      Am
    I do
 

    verse:

There's a hole in what you're saying
 I can plainly see
 You have a lover that's waiting but baby you're right here with me
 
Ooh
 You might as well be the devil
 Oh
 Keeping me out past three
 Oh
 You're the one with that apple so baby you can't blame me
 

   chour:
Why don't you keep drinking
 Get me one night with you
 If I didn't know better
 But damnit
 I do
 
do intro bit one more time here:


You know that I do
 
Oh
 Baby you're right here with me
 Oh
 Baby you know 
Suggest correction new What's this?
You can suggest a correction to this tab. Community and Mods will review your correction and vote to approve or reject it.
comments
print report bad tab
4 comments total. Showing first comments.
+1 reply
melinky 17 wrote on November 1 2012, 12:13 pm

I think the words for the last line of of the first verse are:
The horns are blowing louder and the bailliff's drawing near

It took listening to several versions and checking several web sites to figure that one out. :-)

0 reply
jayh0va217 446 wrote on August 27 2013, 06:43 pm

I think the Am is toggled on the first fret throughout the song and he hits the bass notes between the strum pattern to create a beat.


Am ^ v Am ^ v Am ^ v
e|-0---0---0---0---0---0---0---0---0--------------|
B|-1---0---1---0---1---0---1---0---1--------------|
G|-2---2---2---2---2---2---2---2---2--------------|
D|-2---2---2---2---2---2---2---2---2--------------|
A|-0-----------------------0-------------------0--|
E|-------------0-----------------------0---3------|

0 reply
jayh0va217 446 wrote on August 27 2013, 06:43 pm

e|-0---0---0---0---0---0---0---0---0--------------|
B|-1---0---1---0---1---0---1---0---1--------------|
G|-2---2---2---2---2---2---2---2---2--------------|
D|-2---2---2---2---2---2---2---2---2--------------|
A|-0-----------------------0-------------------0--|
E|-------------0-----------------------0---3------|

guest
You may want to rate the tab now too:
select rating
Please do not post tabs as comments. Select "correction" instead!