Oops, an error
Loading. Please wait.

My Fathers Father Tab

version 2
version 2

Whole song

6,602 views 9 this week
1 commentread comment
1 2 3 4 5
accurate
x 4
add to favorites
launch autoscroll
font size
0
reset
how to read this tab
guitar tuner
Tab Pro tools
  • play this tab
  • loop segment
  • change instrument
  • show fretboard
  • metronome
×
Best way to learn
"My Fathers Father"
Autoscroll
slow
fast
+/-
esc
set tempo
stop
Contributor
Difficulty
Tuning
intermediate
D G D G B D
NO CAPO!!

VERY IMPORTANT: The numbers like..(x2).. are only for what is to the direct left of it, 
unless it is outside all of the brackets you would replay the whole thing.

For example:

e |-------x----------x----------x--------------------|
B |----0--x-0-----0--x--0-----0-x----------0------0--|
G |----9--x-9-----9--x--9-----9-x-(x3)-----9------9--|
D |-------x----------x----------x--------------------|
A |-------x----------x----------x--------------------|
E |--7----x-----7----x------9---x--------9------9----|
                      ___________

                           ^   THIS IS THE ONLY PART YOU PLAY THREE TIMES
                           |
                           |





e |----------------------------------x-----------x-----|
B |------0---0----------0----0----0--x--0----0---x--0--|
G |------9---9--(x2)----9----9----9--x--9----9---x--9--|
D |----------------------------------x-----------x-----|   (x2)
A |-0h7-------------0h7--------------x-----------x-----|
E |--------0--------------7-----9----x-----9-----x-----|

(Start of Verse 1)

e |----------------------------------x-----------x-----|
B |------0---0----------0----0----0--x--0----0---x--0--|
G |------9---9--(x2)----9----9----9--x--9----9---x--9--|
D |----------------------------------x-----------x-----|   (x2)
A |-0h7-------------0h7--------------x-----------x-----|
E |--------0--------------7-----9----x-----9-----x-----|

I hear something hanging on the wind
I see black smoke up around the bend




e |-------x----------x----------x-----------------------|
B |----0--x-0-----0--x--0-----0-x-------0-----0------0--|
G |----9--x-9-----9--x--9-----9-x-(x3)--9-----9------9--|
D |-------x----------x----------x-----------------------|
A |-------x----------x----------x-----------------------|
E |--7----x-----7----x------9---x----------9------9-----|

I got my ticket and I'm going to go




e |--------------------x---------x------|
B |----0--------0----0-x-0-----0-x-0----|
G |----9--------9----9-x-9-----9-x-9----|
D |-------(x5)---------x---------x------|
A |-7------------------x---------x------|
E |-----------7----9---x-----9---x------|

Home




e |-------------------------------x----------x---------|
B |-----------------0----0----0---x--0----0--x---0-----|
G |-----------------9----9----9---x--9----9--x---9-----|
D |-------------------------------x----------x---------|
A |-7---7-----0h7-----------------x----------x---------|
E |---0----0----------7-----9-----x----9-----x---------|

(Start of Verse 2)




e |----------------------------------x-----------x-----|
B |------0---0----------0----0----0--x--0----0---x--0--|
G |------9---9--(x2)----9----9----9--x--9----9---x--9--|
D |----------------------------------x-----------x-----|   (x2)
A |-0h7-------------0h7--------------x-----------x-----|
E |--------0--------------7-----9----x----9------x-----|

The leaves have changed a time or two
Since the last time the train came through






e |-------x----------x----------x---------------------|
B |----0--x-0-----0--x--0-----0-x------0----0------0--|
G |----9--x-9-----9--x--9-----9-x-(x3)-9----9------9--|
D |-------x----------x----------x---------------------|
A |-------x----------x----------x---------------------|
E |--7----x-----7----x------9---x---------9-----9-----|

I got my ticket and I'm going to go





e |--------------------x---------x-------|
B |----0--------0----0-x-0-----0-x--0----|
G |----9--------9----9-x-9-----9-x--9----|
D |-------(x5)---------x---------x-------|
A |-7------------------x---------x-------|
E |-----------7----9---x-----9---x-------|

Home



e |------------------------------------------x-----------x---|
B |----------0----0--------0------0------0---x---0----0--x-0-|
G |----------9----9--------9------9------9---x---9----9--x-9-|
D |------------------------------------------x-----------x---|
A |-7---0h7-----------0h7--------------------x-----------x---|
E |---0---------0-------------7------9-------x-----9-----x---|

(Before Interlude)




e |------------------------x----------------x--------------|
B |----0--------0--------0-x-0---0---0----0-x-0---0----0---|
G |----9--------9--------9-x-9---9---9----9-x-9---9----9---|
D |------(x4)------(x4)----x----------------x--------------|
A |--6--------7------------x----------------x--------------|
E |--------------------7---x---7----7---6---x---6----6-----|

e |------------------------|
B |----0--------0----------|
G |----9--------9----------|
D |------(x4)------(x4)----|
A |--6--------7------------|
E |------------------------|

Interlude




e |-----------------------------------------x-----------x---|
B |----------0----0-------0------0------0---x---0----0--x-0-|
G |----------9----9-------9------9------9---x---9----9--x-9-|
D |-----------------------------------------x-----------x---|
A |-7---0h7----------0h7--------------------x-----------x---|
E |---0---------0------------7------9-------x-----9-----x---|

(Start of Verse 3)




e |----------------------------------x-----------x-----|
B |------0---0----------0----0----0--x--0----0---x--0--|
G |------9---9--(x2)----9----9----9--x--9----9---x--9--|
D |----------------------------------x-----------x-----|
A |-0h7-------------0h7--------------x-----------x-----|
E |--------0--------------7-----9----x----9------x-----|

My father's father's blood is on the track




e |----------------------------------x---------------|
B |------0---0----------0----0----0--x-0----0----0---|
G |------9---9--(x2)----9----9----9--x-9----9----9---|
D |----------------------------------x---------------|
A |-0h7-------------0h7--------------x---------------|
E |--------0--------------7-----9----x---9-----9-----|


A sweet refrain drifts in from the past





e |-------x----------x----------x-----------------------|
B |----0--x-0-----0--x--0-----0-x-------0-----0------0--|
G |----9--x-9-----9--x--9-----9-x--(x3)-9-----9------9--|
D |-------x----------x----------x-----------------------|
A |-------x----------x----------x-----------------------|
E |--7----x-----7----x------9---x----------9------9-----|

I got my ticket and I'm going to go




e |--------------------x---------x-------------------------------------x--|
B |----0--------0----0-x-0-----0-x-0--------------------------------0--x--|
G |----9--------9----9-x-9-----9-x-9--------------------------------9--x--|
D |-------(x5)---------x---------x-------------------------------------x--|
A |-7------------------x---------x----7--------7-------7---------------x--|
E |-----------7----9---x-----9---x---------0-------0-------7-----9-----x--|

e |-----------x----|
B |--0----0---x--0-|
G |--9----9---x--9-|
D |-----------x----|
A |-----------x----|
E |-----9-----x----|

Home



e |----------------------------------x-----------x-----|
B |------0---0----------0----0----0--x--0----0---x--0--|
G |------9---9--(x2)----9----9----9--x--9----9---x--9--|
D |----------------------------------x-----------x-----|
A |-0h7-------------0h7--------------x-----------x-----|
E |--------0--------------7-----9----x----9------x-----|

The winding roads they led me here


e |----------------------------------x---------------|
B |------0---0----------0----0----0--x-0----0----0---|
G |------9---9--(x2)----9----9----9--x-9----9----9---|
D |----------------------------------x---------------|
A |-0h7-------------0h7--------------x---------------|
E |--------0--------------7-----9----x---9-----9-----|

Burn like coal and dry like tears





e |-------x----------x----------x---------------------|
B |----0--x-0-----0--x--0-----0-x------0-----0-----0--|
G |----9--x-9-----9--x--9-----9-x-(x2)-9-----9-----9--|
D |-------x----------x----------x---------------------|
A |-------x----------x----------x---------------------|
E |--7----x-----7----x------9---x---------9-----9-----|

So here's my hope
My tired soul





e |-------x----------x----------x----------------------|
B |----0--x-0-----0--x--0-----0-x------0-----0------0--|
G |----9--x-9-----9--x--9-----9-x-(x3)-9-----9------9--|
D |-------x----------x----------x----------------------|
A |-------x----------x----------x----------------------|
E |--7----x-----7----x------9---x----------9-----9-----|

And here's my ticket
I want to go

e |--------------------x---------------------|
B |----0--------0----0-x-0-----0-----0----0--|
G |----9--------9----9-x-9-----9-----9----9--|
D |-------(x5)---------x---------------------|
A |-7------------------x---------------------|
E |-----------7----9---x-----9----9----9-----|
Home



e |--------------------x---------x---------------------|
B |----0--------0----0-x-0-----0-x-0----0-----0-----0--|
G |----9--------9----9-x-9-----9-x-9----9-----9-----9--|
D |------(x5)----------x---------x---------------------|
A |-7------------------x---------x---------------------|
E |-----------7----9---x-----9---x----9----9-----9-----|

Home




e |--------------------x---------x---------------|
B |----0--------0----0-x-0-----0-x-0----0-----0--|
G |----9--------9----9-x-9-----9-x-9----9-----9--|
D |------(x5)----------x---------x---------------|
A |-7------------------x---------x---------------|
E |-----------7----9---x-----9---x----9----9-----|

Home




e |------------------------------------|
B |----------0----0-------0------0-----|
G |----------9----9-------9------9-----|
D |------------------------------------|
A |-7---0h7----------0h7---------------|
E |---0---------0------------7------9--|
comments
print report bad tab
1 comment total.
0 reply
Spambot_2 wrote on July 24 2014, 06:57 am

Clearly wrong.

I want to post or [tab]
guest
You may want to rate the tab now too:
select rating
Please do not post tabs as comments. Select "correction" instead!