Oops, an error
Loading. Please wait.

Oh Henry tab

version 1
version 1

Whole song

11,065 views 9 this week
1 commentread comment
1 2 3 4 5
x 5
add to favorites
×
Save as Personal and add changes to this tab that will be seen only by you. Learn more ›
×
You can save this tab as Personal to edit and correct it or add notes. All changes will be seen only by you. Learn more »
launch autoscroll
font size
0
reset
how to read this tab
guitar tuner
edit
Autoscroll
slow
fast
+/-
esc
set tempo
stop
-------------------------------------------------------------------------------
                        OH HENRY- The Civil Wars
-------------------------------------------------------------------------------
Tabbed by:elfa

Tuning: DADGAD
Capo: 5
Not the easiest of songs but once you get the hang of it, it is all good

Play open strings when not put in.
I chose not to put them in because it crowds it and makes it harder to read =)
Also for the strumming pattern just listen to the way they play it and you’ll get it eventually

Intro:
e|--------------------------------|
B|--------------------------------|
G|---2-----2------2-----2-----2---|
D|--------0h3----------0h3--------| 
A|--0h3----------0h3--------------|
E|---------------------------0h3--|


e|--------------------------------|
B|--------------------------------|
G|-----------------------2--------|
D|--------------------------------|
A|--------------------------------|
E|--3/5----3----2----0------------|

Play that twice, and that’s all the intro is. That’s also the hardest part =)

Verse:

e|---------------------------------------------|
B|---------------------------------------------|
G|--2---2---4---2------------------2-----------|  X 2
D|--4---5-------4------------------------------|
A|---------------------------------------------|
E|--------------------3/5--3--2--0-------------|


Chorus:

e|--0--0--0------|
B|--0--0--0------|
G|--2--0--2------|
D|--2--0--0------| X 4 
A|--0--0--0------|
E|--0--5--0------|

e|--------------------|
B|--------------------|
G|--------------------| Just hammer a few times
D|--------------------|
A|--------------------|
E|---0h2-0h2----------|


Now for the bridge I’m not too sure but this is what I play and it sounds okay I guess

e|-----------------------------------------------------------------|
B|-----------------------------------------------------------------|
G|-----3-----3--------3------3-------3------3-----3----3-----------|
D|-----------------------------------------------------------------|
A|-----3-----4--------3------4-------3------4-----3----4-----------|
E|-----------5---------------5--------------5----------5-----------|

Then back to the intro then chorus
************************************

| /   slide up
| \   slide down
| h   hammer-on
| p   pull-off

************************************

            
            
Suggest correction
Creating personal tab
Creating personal tab
You can edit any tab online and save it as your Personal.

You can edit, replace or remove any tab part or add personal notes – all changes will be seen only by you.

Personal tabs can be accessed anytime from any device, even offline.
Learn more »
comments
print report bad tab
1 comment total.
0 reply
elfa 131 Dec 30, 2013 02:24 PM

Please not that this is for the love version.
For the studio version make sure it is CAPO 3.

guest
You may want to rate the tab now too:
select rating
Wanna post a correction for this tab? Suggest correction