Oops, an error
Loading. Please wait.

Poison And Wine Tab

25,105 views 45 this week
3 commentsread comments
1 2 3 4 5
accurate
x 10
add to favorites
launch autoscroll
font size
0
reset
how to read this tab
guitar tuner
Autoscroll
slow
fast
+/-
esc
set tempo
stop
Help us to improve Ultimate-Guitar.com Take our survey!
×
Difficulty
Capo
novice
2nd fret
Capo 2

Intro/Verse 1/Chorus 1
e: ---------------------------------------------------------------|
b: ---------------------------------------------------------------|
G: ---------------------------------------------------------------|
D: ---------------------------------------------------------------|
A: -----------------------------------9-9--9-9-9--9-9-9--9-9-9--9-|
E:-9-9--9-9-9--9-11-11--11-11-11--11- 0-0--0-0-0--0-0-0--0-0-0--0-|


Verse 2/Chorus 2/Outro
e:--0---0---0-|
b:--0---0---0-|
G:-10--10--10-|
D:-11--11--11-|
A:--x---x---9-|
E:--9--11---0-|

He only plays down strokes the whole song.  Pretty easy song to play.
Suggest correction
comments
print report bad tab
3 comments total.
+1 reply
brionriborn 50 wrote on May 4 2012, 06:26 pm

who gave this 2 stars??? this is the correct tab!! those others ones are simplified versions. he actually plays capo 2 with this finger. watch any video of the civil wars if you want to confirm.

0 reply
musicmazze 32 wrote on August 3 2012, 10:24 am

thanks for the great tab. seems to be correct. I sometimes like to add some kind of variation in the last chorus, something like this:


e:--0---0---0--0--0-|
b:--0---0---0--0--0-|
G:-10--10--10-10-10-|
D:-11--11--11-10-11-|
A:--x---x---9--9--9-|
E:--9--11---0--0--0-|

just slide down from 11 to 10 fret on the D string for a couple of strokes. Not sure if he plays it too or if it's her on the piano. But I like the sound.

+2 reply
ShoeLace1291 18 wrote on April 1 2013, 07:17 pm

If this is capo 2, which it is, then this tab is off by two frets.

E: ----------------------------------------------------------------
B: -----------------------------------------------------------------
G: -----------------------------------------------------------------
D: -----------------------------------------------------------------
A: ----------------------------------7-7---7-7-7---7-7-7---7-7-7---7
E: -7-7---7-7-7---7-9-9---9-9-9----9-0-0---0-0-0---0-0-0---0-0-0---0

guest
You may want to rate the tab now too:
select rating
Please do not post tabs as comments. Select "correction" instead!