Oops, an error
Loading. Please wait.

Same Old Same Old Tab

version 1
version 1

Whole song

19,222 views 39 this week
5 commentsread comments
1 2 3 4 5
x 13
add to favorites
launch autoscroll
font size
0
reset
how to read this tab
guitar tuner
×
Best way to learn
"Same Old Same Old"
Autoscroll
slow
fast
+/-
esc
set tempo
stop
Author
Tuning
Capo
  follow
D A D G B E
3rd fret
It's in Drop D with capo on 3rd fret

[Intro]
e|-------------------------------------------------------------------------|
B|-------------------------------------------------------------------------|
G|-----------------------------------------------0-------------------------|
D|-----0h2----/4----/5----4----\2----0---------0---------0---0-------------|
A|----------------------------------------0h2-------2p0--------------------|
E|-----0---------------------------------------------------0---------------|            

e|-------------------------------------------------------------------------| (x2)
B|-------------------------------------------------------------------------| 
G|-------------------------------------------------------------------------|
D|-----0h2----/4----/5----4----/2----0------------------4----4-------------|
A|---------------------------------------0h2----/5----5----5---------------|
E|-----0-------------------------------------------------------------------|

[Verse]
(palm muted)                                   
e|------------------------------------------------------------------------------|
B|------------------------------------------------------------------------------|
G|--------2-----2------2------2-------2----2----2----2-----2-----2-----2-----2--|
D|------0-----0------0------0-------0----0----0----0-----0-----0-----0-----0----|
A|--------------------------------2----2----2----2-----4----4------4-----4------|
E|----0------0------0------0----------------------------------------------------|
                                                    
e|-------------------------------------------------------------------|
B|-------------------------------------------------------------------|
G|-------2-----2---------0-------------------------------------------|
D|-----0-----0---------0----X2-----0---------------------------------|
A|-----------------0h2-------------0--[at the end of the second time]|
E|---0-----0-----------------------4---------------------------------|

[Chorus]
Do I love you...      and I'm going to till...     but if you think...          I don't, I don't
  G         D       Asus2   D          D..        G                Asus2    G        G
e|--0--|  |--2--|  |--0--|  |--2--|  |--2--0--|  |--0--|  |--0--|  |--0--|  |--0--|  |-----0--|
B|--3--|  |--3--|  |--3--|  |--3--|  |--3--3--|  |--3--|  |--3--|  |--3--|  |--3--|  |-----3--|  
G|--4--|  |--2--|  |--2--|  |--2--|  |--2--0--|  |--4--|  |--2--|  |--2--|  |--4--|  |-----4--|
D|--0--|  |--0--|  |--2--|  |--0--|  |--0--0--|  |--0--|  |--0--|  |--2--|  |--0--|  |-----0--|
A|--5--|  |--0--|  |--0--|  |--0--|  |--0--0--|  |--5--|  |--2--|  |--0--|  |--5--|  |--4--5--|
E|--5--|  |--0--|  |--0--|  |--0--|  |--1--4--|  |--5--|  |--0--|  |--0--|  |--5--|  |--4--5--|

[Instrumental]
e|-------------------------------------------------------------------------|
B|-------------------------------------------------------------------------|
G|-----------------------------------------------0-------------------------|
D|-----0h2----/4----/5----4----\2----0---------0---------0---0-------------|
A|----------------------------------------0h2-------2p0--------------------|
E|-----0---------------------------------------------------0---------------|            

e|-------------------------------------------------------------------------| (x2)
B|-------------------------------------------------------------------------| 
G|-------------------------------------------------------------------------|
D|-----0h2----/4----/5----4----/2----0------------------4----4-------------|
A|---------------------------------------0h2----/5----5----5---------------|
E|-----0-------------------------------------------------------------------|

[Verse 2]
I'm gonna break things...
    D           D
e|--2--|  |--0--|  |--0--|  |--2--| 
B|--3--|  |--3--|  |--3--|  |--3--|  
G|--2--|  |--2--|  |--2--|  |--2--|  
D|--0--|  |--0--|  |--0--|  |--0--|  
A|--0--|  |--2--|  |--4--|  |--0--|  
E|--0--|  |--0--|  |--0--|  |--0--|  

I'm gonna name names...
    D           D
e|--2--|  |--0--|  |--0--|  |--2--| 
B|--3--|  |--3--|  |--3--|  |--3--|  
G|--2--|  |--2--|  |--2--|  |--2--|  
D|--0--|  |--0--|  |--0--|  |--0--|  
A|--0--|  |--2--|  |--4--|  |--0--|  
E|--0--|  |--0--|  |--0--|  |--0--|  

[Chorus]
Do I love you...      and I'm going to till...     but if you think...          I don't, I don't
  G         D       Asus2   D          D..        G                Asus2    G        G
e|--0--|  |--2--|  |--0--|  |--2--|  |--2--0--|  |--0--|  |--0--|  |--0--|  |--0--|  |-----0--|
B|--3--|  |--3--|  |--3--|  |--3--|  |--3--3--|  |--3--|  |--3--|  |--3--|  |--3--|  |-----3--|  
G|--4--|  |--2--|  |--2--|  |--2--|  |--2--0--|  |--4--|  |--2--|  |--2--|  |--4--|  |-----4--|
D|--0--|  |--0--|  |--2--|  |--0--|  |--0--0--|  |--0--|  |--0--|  |--2--|  |--0--|  |-----0--|
A|--5--|  |--0--|  |--0--|  |--0--|  |--0--0--|  |--5--|  |--2--|  |--0--|  |--5--|  |--4--5--|
E|--5--|  |--0--|  |--0--|  |--0--|  |--1--4--|  |--5--|  |--0--|  |--0--|  |--5--|  |--4--5--|

[Bridge]
6776xx
577655
202130
002230

[Chorus]
Do I love you...      and I'm going to till...     but if you think...          I don't, I don't
  G         D       Asus2   D          D..        G                Asus2    G        G
e|--0--|  |--2--|  |--0--|  |--2--|  |--2--0--|  |--0--|  |--0--|  |--0--|  |--0--|  |-----0--|
B|--3--|  |--3--|  |--3--|  |--3--|  |--3--3--|  |--3--|  |--3--|  |--3--|  |--3--|  |-----3--|  
G|--4--|  |--2--|  |--2--|  |--2--|  |--2--0--|  |--4--|  |--2--|  |--2--|  |--4--|  |-----4--|
D|--0--|  |--0--|  |--2--|  |--0--|  |--0--0--|  |--0--|  |--0--|  |--2--|  |--0--|  |-----0--|
A|--5--|  |--0--|  |--0--|  |--0--|  |--0--0--|  |--5--|  |--2--|  |--0--|  |--5--|  |--4--5--|
E|--5--|  |--0--|  |--0--|  |--0--|  |--1--4--|  |--5--|  |--0--|  |--0--|  |--5--|  |--4--5--|

[Outro]
e|-------------------------------------------------------------------------|
B|-------------------------------------------------------------------------|
G|-----------------------------------------------0-------------------------|
D|-----0h2----/4----/5----4----\2----0---------0---------0---0-------------|
A|----------------------------------------0h2-------2p0--------------------|
E|-----0---------------------------------------------------0---------------|            

e|-------------------------------------------------------------------------| (x2)
B|-------------------------------------------------------------------------| 
G|-------------------------------------------------------------------------|
D|-----0h2----/4----/5----4----/2----0------------------4----4-------------|
A|---------------------------------------0h2----/5----5----5---------------|
E|-----0-------------------------------------------------------------------|



************************************

| h  Hammer-on
| /  Slide up
| \  Slide down
| p  Pull-off

************************************
Suggest correction
comments
print report bad tab
5 comments total. Showing first comments.
0 reply
jmacie 10 Sep 23, 2013 08:39 PM

I appreciate your work on this great song!
I tried to pick it out too, but I used DADGBD.
I tried that cause I heard JPW used that tuning. But I could be wrong way wrong. The bridge is the part that is puzzling to me too. Much of what you have is right on, and I'm sure it'll get sorted out. Thanks, I'll be back!

+1 reply
jmacie 10 Sep 23, 2013 08:57 PM

There is a guy on youtube that plays this in DADGAD, so now I know I'm wrong, so maybe some more tabs will show up.

0 reply
jmacie 10 Sep 23, 2013 08:57 PM

http://www.youtube.com/watch?v=g_b78XJ3vEU

guest
You may want to rate the tab now too:
select rating
Wanna post a correction for this tab? Suggest correction