Oops, an error
Loading. Please wait.

Tip Of My Tongue Tab

version 3
version 3

Whole song

Interactive

16,449 views 21 this week
no commentswrite comment
1 2 3 4 5
excellent!
x 9
add to favorites
launch autoscroll
font size
0
reset
how to read this tab
guitar tuner
Tab Pro tools
  • play this tab
  • loop segment
  • change instrument
  • show fretboard
  • metronome
×
Best way to learn
"Tip Of My Tongue"
Autoscroll
slow
fast
+/-
esc
set tempo
stop
Difficulty
Capo
intermediate
5th fret
-------------------------------------------------------------------------------
                             Tip of my Tongue-The Civil Wars
-------------------------------------------------------------------------------
Tabbed by:anony-mouse
Email:blind2004@msn.com

Tuning:Standard tuning, Capo 5th fret

Intro
e|----0----------0----------0------------------------------------------------|
B|----0-----0----0-----0----0----0----0--------------------------------------|
G|---5-5----0---5-5----0---5-5---0----8--------------------------------------|
D|--7------5---7------5---7-----5----7---5-----------------------------------|
A|--------7----------7---------7----9----7-----------------------------------|
E|---------------------------------------------------------------------------|
Verse
e|----0--------0---------0------------------0-------0--------0---------------|
B|----0---0----0----0----0----0---0-0-0-0---0---0---0----0---0---0--0--------|
G|---5-5--0---5-5---0---5-5---0---8-8-8-8--5-5--0--5-5---0--5-5--0--8--------|
D|--7----5---7-----5---7-----5---7-7-7-7--7----5--7-----5--7----5--7--5------|
A|------7---------7---------7---9-------------7--------7-------7--9---7------|
E|---------------------------------------------------------------------------|
Chorus
e|----------------------------------------------------------------------------|
B|----------------------------------------------------------------------------|
G|---0----0----2----0----0----0----2----0----0----0----2----0----0---0----2-2-|
D|--2-2--0-0--0-0--2-2--2-2--0-0--0-0--2-2--2-2--0-0--0-0--2-2--2-2-2-2--0-00-|
A|-3---------2---------3---------2---------3---------2---------3---3----2---2-|
E|------3---------0---------3---------0---------3---------0-------------------|
Pre-Verse
e|---0-------0-------0-------------------------------------------------------|
B|---0---0---0---0---0---0--0-0-0-0------------------------------------------|
G|--5-5--0--5-5--0--5-5--0--8-8-8-8------------------------------------------|
D|-7----5--7----5--7----5--7-7-7-7-------------------------------------------|
A|-----7-------7-------7--9--------------------------------------------------|
E|---------------------------------------------------------------------------|
Repeat First Verse

Repeat Chorus

Bridge
e|---0---0----0---0---------------0---0----0---0-----------------------------|
B|---0---0----0---0--0--0---0--0--0---0----0---0-----------------------------|
G|--5-5-7-7--7-7-7-7-0--0---0--0-5-5-7-7--7-7-7-7---0---0----2--0------------|
D|-7---9---10---9---5--7---7--7-7---9---10---9-----2-2-2-2--0-0-0------------|
A|-----------------7--9--10--9--------------------3---3----2----2------------|
E|---------------------------------------------------------------------------|
Repeat Chorus 2x

Outro
e|---0-------0-------0---------------0-------0-------0------------------------|
B|---0---0---0---0---0---0--0-0-0----0---0---0---0---0---0--------------------|
G|--5-5--0--5-5--0--5-5--0--8-8-8---5-5--0--5-5--0--5-5--0-8-8----------------|
D|-7----5--7----5--7----5--7-7-7-7-7----5--7----5--7----5--7-7-5--------------|
A|-----7-------7-------7--9------------7-------7-------7---9-9-7--------------|
E|----------------------------------------------------------------------------|
comments
print report bad tab
I want to post or [tab]
guest
You may want to rate the tab now too:
select rating
Please do not post tabs as comments. Select "correction" instead!