Oops, an error
Loading. Please wait.

To Whom It May Concern Tab

63,215 views 57 this week
4 commentsread comments
1 2 3 4 5
x 19
add to favorites
launch autoscroll
font size
0
reset
how to read this tab
guitar tuner
Autoscroll
slow
fast
+/-
esc
set tempo
stop
Help us to improve Ultimate-Guitar.com Take our survey!
×
Author
Difficulty
Capo
intermediate
5th fret
Just figured this one out, hope you all enjoy.

Tuning: DADGAD
Capo: 5


[Intro]

D|------------0-----2-----0-----------0-----------0--------|
A|------0h5---------------------2-----------0---------0----|
G|---------------------------------------------------------|
D|----------4---4-------4---4-------4---4-------4---4------|
A|------5-----------5-----------5-----------5--------------|
D|---------------------------------------------------------|
      
D|------------0-----2-----0-----------0-----0---------0--|-------0------|
A|------0h5---------------------2-----------------0------|------------0-|
G|-------------------------------------------------------|--------------|
D|----------4---4-------4---4-------4---4-------4---4----|------4---4---|
A|------5-----------5-----------5-----------5------------|--5-----------|
D|-------------------------------------------------------|--------------|(x3)


[Verse]

D|------------0-----2-----0-----------0-----------0--------|
A|------0h5---------------------2-----------0---------0----|
G|---------------------------------------------------------|
D|----------4---4-------4---4-------4---4-------4---4------|
A|------5-----------5-----------5-----------5--------------|
D|---------------------------------------------------------|

D|------------0-----2-----0-----------0----|--------0-----------0-----|
A|------0h5---------------------2----------|--0-----------------------|
G|-----------------------------------------|--------------0-----------|
D|----------4---4-------4---4-------4---4--|--------------------------|
A|------5-----------5-----------5----------|------2---2-------2---2---|
D|-----------------------------------------|--2-----------2-----------|(x2)

D|----------0-------|
A|------------------|
G|----2-------------|  last time,
D|--------0---0-----|  lead into chorus
A|------------------|
D|----4-------------|


[Chorus]

D|------------0-----------0-----------0-----------0------|
A|-------------------------------------------------------|
G|------0-----------0-----------0-----------0------------|
D|----------0---0-------0---0-------0---0-------0---0----|
A|-------------------------------------------------------|
D|------5-----------5-----------5-----------5------------|

D|------------0-----------0-----------0-----------0------|
A|-------------------------------------------------------|
G|------0-----------0-----------2-----------2------------|
D|----------0---0-------0---4-------0---0-------0---0----|
A|------2-----------2-----------0------------------------|
D|------------------------------------------4------------|

D|------------0-----------0------------------------------|
A|-------------------------------------------------------|
G|------0-----------0-----------0------------------------|
D|----------0---0-------0---0----------------------------|
A|-------------------------------------------------------|
D|------5-----------5-----------5------------------------|


[Bridge]

D|------------0-----------0-----------0----------0------|
A|------0-----------0----------0-----------0------------|
G|------------------------------------------------------|
D|----------4---4-------4---4------4---4-------4---4----|
A|------5-----------3----------------------0------------|
D|-----------------------------5------------------------|(x3)

D|------------0-----------0------------------------------|
A|-------------------------------------------------------|
G|------0-----------0-----------0-------2----------------|
D|-------------------------------------------------------|
A|----------2---2-------2---2---2------------------------|
D|------2-----------2-------------------4----------------|



************************************

| h  Hammer-on

************************************
Suggest correction
comments
print report bad tab
4 comments total. Showing first comments.
0 reply
markymark29 31 Mar 05, 2012 11:14 PM

Nicely done, dude. couldn't find this one.

0 reply
rocksolid910 10 Nov 07, 2012 12:49 AM

awesomeness dude

0 reply
hellokittycat 10 Jun 16, 2015 04:05 PM

What's the order of the song? Is it intro, verse, chorus, verse, chorus, bridge, then verse again? I'm sorry, just a bit confused...

guest
You may want to rate the tab now too:
select rating
Wanna post a correction for this tab? Suggest correction