Oops, an error
Loading. Please wait.

Shimmy Low Bass Tab

419 views 1 this week
no commentswrite comment
1 2 3 4 5
please rate
add to favorites
launch autoscroll
font size
0
reset
guitar tuner
Tab Pro tools
  • play this tab
  • loop segment
  • change instrument
  • show fretboard
  • metronome
×
Best way to learn
"Shimmy Low"
Autoscroll
slow
fast
+/-
esc
set tempo
stop
Contributor
-------------------------------------------------------------------------------
			  SHIMMY LOW - THE CLARKS
-------------------------------------------------------------------------------

Tabbed By : James Ryan
http://world-according-to-jim.blogspot.com/

Tuning: Standard
 
INTRO
G|----------------------------------------------------------|
D|-----------------------7-----------7--5-------------------|
A|------------5-5-5-5--9---9--------------7--5--------------| 
E|-3-3---7-8-----------------5-5-5-5------------7/8-8-8-8-8-|x2

VERSES\SOLO
G|----------------------------------------------------------|
D|----------------------------------------------------------|
A|---------------5-5-5-5-5-5---------------3-3-3-3-3-3------| 
E|-3-3-3-3-3-3----------------5-5-5-5-5-5-------------------|x2

PRE-CHORUS
G|----------------------------------------------------------|
D|----------------------------------------------------------|
A|--3-/-10-9-5--------------3-/-10-9--5-5-5-5-5-------------| 
E|---------------5--7--5------------------------------------|

CHORUS
G|----------------------------------------------------------|
D|----------------------------------------------------------|
A|---------------5-5-5-5-5-5---------------3-3-3-3-3-3------| 
E|-3-3-3-3-3-3----------------5-5-5-5-5-5-------------------|x2

G|----------------------------------------------------------|
D|-----------------------7-----------7--5-------------------|
A|------------5-5-5-5--9---9--------------7--5--------------| 
E|-3-3---7-8-----------------5-5-5-5------------7/8-8-8-8-8-|x2

2nd PRE-CHORUS
G|----------------------------------------------------------|
D|----------------------------------------------------------|
A|-3-3-3-3-3-3-5-5-5-5-5-5-7-7-7-7-7-7-9-9-9-9-9-9-9-9------| 
E|----------------------------------------------------------|

Bridge
G|------------------|
D|------------------|
A|--/-15-15-15-15---| 
E|------------------|

G|-----------------------------------------------------------|
D|-----------------------------------------------------------|
A|--7-7-7-7-7-7---5-5-5-5-5--3-3-3-3-3-3-3-3-3-3-3-3-3-------| 
E|-----------------------------------------------------------|

G|-----------------------------------------------------------|
D|-----------------------------------------------------------|
A|-7-7-7-7-7-7--5-5-5-5--3-3-3-/-15-15-15-\-5-5-5-/-12-12-12-|
E|-----------------------------------------------------------|
comments
We did not receive enough feedback on this tab! Please rate:
print report bad tab
1 2 3 4 5
I want to post or [tab]
guest
You may want to rate the tab now too:
select rating
Please do not post tabs as comments. Select "correction" instead!