Oops, an error
Loading. Please wait.

All The Young Punks Bass Tab

version 1
version 1

Whole song

1,294 views 3 this week
no commentswrite comment
1 2 3 4 5
excellent!
x 1
add to favorites
launch autoscroll
font size
0
reset
guitar tuner
Tab Pro tools
  • play this tab
  • loop segment
  • change instrument
  • show fretboard
  • metronome
Autoscroll
slow
fast
+/-
esc
set tempo
stop
Contributor
Come in at 9 seconds

|--------------|
|--------------|
|--2-2/44------|
|---------2h---|


|--------------------------------------------|
|--9--9---8--8-------------------------------|
|----------------9--9---8--8-----------------|
|------------------------------7--7---6--6---|


|---------------------|
|---------------------|
|--2-2/44-------------|
|---------2-2334455---|


|---------------------------------------------------------------------|
|---------------------------------------------------------------------|
|--2222222211111111----------------22222222111111112-2/44-------------|
|------------------2222222211111111-----------------------2-2334455---|  x2


|------------------------------------------------------------|
|---------------64-6h------------------------64-4h-----------|
|------7-7--------6--66-76----------7-7--------6--44-64------|
|--7-7-----7-7-------------9h---7-7-----7-7-------------7h---|  x2


|--------------------------------------------|
|--9--9---8--8-------------------------------|
|----------------9--9---8--8-----------------|
|------------------------------7--7---6--6---|


|---------------------|
|---------------------|
|--2-2/44-------------|
|---------2-2334455---|


|---------------------------------------------------------------------|
|---------------------------------------------------------------------|
|--2222222211111111----------------22222222111111112-2/44-------------|
|------------------2222222211111111-----------------------2-2334455---|  x2


|------------------------------------------------------------|
|---------------64-6h------------------------64-4h-----------|
|------7-7--------6--66-76----------7-7--------6--44-64------|
|--7-7-----7-7-------------9h---7-7-----7-7-------------7h---|  x2


|---------------------------------------------|
|---------------------------------------------|
|---------------------------------------------|
|--5h---3h---2h---1h--/5h---3h---2h---1h--/---|


|-------------------------------------------------------------|
|-------------------------------------------------------------|
|------77----------7h66-76-----------77----------9h44-64------|
|--7767--677767h77---------9h---\7767--677767h77---------7h---|   x2


|--------------------------------------------|
|--9--9---8--8-------------------------------|
|----------------9--9---8--8-----------------|
|------------------------------7--7---6--6---|


|---------------------|
|---------------------|
|--2-2/44-------------|
|---------2-2334455---|


|---------------------------------------------------------------------|
|---------------------------------------------------------------------|
|--2222222211111111----------------22222222111111112-2/44-------------|
|------------------2222222211111111-----------------------2-2334455---|  x2


|------------------------------------------------------------|
|---------------64-6h------------------------64-4h-----------|
|------7-7--------6--66-76----------7-7--------6--44-64------|
|--7-7-----7-7-------------9h---7-7-----7-7-------------7h---|  x2


|-------------------------------------------------------------|
|-------------------------------------------------------------|
|------77----79h99-7h66-76-----------77----79h99-6h44-64------|
|--7767--6777--------------9h---\7767--6777--------------7h---|  Play until fade.


comments
We did not receive enough feedback on this tab! Please rate:
print report bad tab
1 2 3 4 5
I want to post or [tab]
guest
You may want to rate the tab now too:
select rating
Please do not post tabs as comments. Select "correction" instead!