Oops, an error
Loading. Please wait.

All The Young Punks Bass Tab

version 2
version 2

Whole song

455 views 1 this week
no commentswrite comment
1 2 3 4 5
please rate
add to favorites
launch autoscroll
font size
0
reset
guitar tuner
Tab Pro tools
  • play this tab
  • loop segment
  • change instrument
  • show fretboard
  • metronome
×
Best way to learn
"All The Young Punks"
Autoscroll
slow
fast
+/-
esc
set tempo
stop
Contributor
-----------------------------------------------------------------------------
	   All The Young Punks(New Boots and Contracts) - The Clash
-----------------------------------------------------------------------------

Tabbed By : jimmyjazz1804	


Tuning: E-A-D-G

  INTRO
G|-----------|-4-4|-3-3|----|----|----|----|----------|--------------|
D|-----------|----|----|-4-4|-3-3|----|----|----------|--------------|
A|--2-2-4-4--|----|----|----|----|-2-2|-1-1|-2-2-4-4--|------0-0-1-1-|
E|----------2|----|----|----|----|----|----|---------2|-2-4-4--------|


  VERSE
G|---------|---------|---------|---------|---------|---------|
D|---------|---------|---------|---------|---------|---------|
A|-22222222|-11111111|---------|---------|-22222222|-11111111|
E|---------|---------|-22222222|-11111111|---------|---------|

G|----------|--------------|
D|----------|--------------|
A|-2-2-4-4--|-------0-0-1-1|
E|---------2|-2-4-4--------|


  CHORUS
G|--------|---444------|-----|----|-------|---444------|------|----|
D|-----2-2|-------6-4--|6----|----|----2-2|-------6-4--|-4----|----|
A|-2-2----|-2---------6|--6-7|-6-4|2-2----|-2---------6|---4-6|-4-2|
E|--------|------------|-----|----|-------|------------|------|----|


  BRIDGE
G|--|--|--|--|
D|--|--|--|--|
A|--|--|--|--|
E|-5|-3|-2|-1|


  GUITAR SOLO
G|----------------|---------4----|------|----|
D|---------2-2----|-----------6-4|-6----|----|
A|-2-2---------4-4|-2-2---2------|---6-7|-6-4|
E|-----4-2--------|-----4--------|------|----|

G|----------------|---------4----|------|----|
D|---------2-2----|-----------6-4|-4----|----|
A|-2-2---------4-4|-2-2---2------|---4-6|-4-2|
E|-----4-2--------|-----4--------|------|----|


  OUTRO
G|-------------1-4|--------|------|----|
D|-----1-4-2-2----|-----1-4|------|----|
A|-2-2------------|-2-2----|-7-6-7|-6-4|
E|----------------|--------|------|----|

G|-------------1-4|--------|------|----|
D|-----1-4-2-2----|-----1-4|------|----|
A|-2-2------------|-2-2----|-6-4-6|-4-2|
E|----------------|--------|------|----|



Song Order:
Intro, enter after 6 bars rest
Verse x2
Chorus x2
Intro (starting at high notes)
Verse x2
Chorus x2
Bridge x2
Guitar Solo x2
Intro (staring at high notes)
Verse x2
Chorus x2
Outro, fade to end
comments
We did not receive enough feedback on this tab! Please rate:
print report bad tab
1 2 3 4 5
I want to post or [tab]
guest
You may want to rate the tab now too:
select rating
Please do not post tabs as comments. Select "correction" instead!