Oops, an error
Loading. Please wait.

All The Young Punks Bass Tab

version 3
version 3

Whole song

196 views 1 this week
no commentswrite comment
1 2 3 4 5
please rate
add to favorites
launch autoscroll
font size
0
reset
guitar tuner
Tab Pro tools
  • play this tab
  • loop segment
  • change instrument
  • show fretboard
  • metronome
Autoscroll
slow
fast
+/-
esc
set tempo
stop
Contributor
Difficulty
intermediate
Great song, and as ever for The Clash an awesome bass line. Enjoy!

Opening 1

G:-----------------]
D:-----------------]
A:-2-2-44------1144]
E:-------02-244----]

Pre-verse

G:-4--4----3--3----------------------------------------------------]
D:-----------------2--2----1--1------------------------------------]
A:---------------------------------2--2----1--1----2-2-44------1144]
E:-------------------------------------------------------02-244----]

Verse

G:-----------------------------------------------------------------]
D:-----------------------------------------------------------------]
A:-2222222211111111----------------22222222111111112-2-44------1144]
E:-----------------2222222211111111----------------------02-244----]

Chorus

G:-------14---4-1--1----------------------14---4-1-------------------]
D:---1422--------41---1--21-----------1422--------414----------------]
A:-22------22---------------4-------22------22---------4--64-2-------]
E:-------------------------------------------------------------------]

Breakdown

G:---------------------------------]
D:---------------------------------]
A:---------------------------------]
E:-5-------3-------2-------1-------]

Bridge

G:-------------------------------------------------------------------]
D:-----22----------2---1---21-------------22----------4--------------]
A:-22----442--2---------------4-------22----442--2--------4---64-2---]
E:---44---------------------------------44---------------------------]


Outro

G:-------14--------------------------------14------------------------]
D:---1422----------2---1--21-----------1422--------------------------]
A:-22------22-2--------------4-------22------22-2----6---4--64-2-----]
E:-----------4---------------------------------4---------------------]



Order of Parts:
Opening x1
Pre-verse x1
Verse x2
Chorus x2
Pre-verse x1
Verse x2
Chorus x2
Breakdown x2
Bridge x2
Pre-Verse x1
Verse x2
Chorus x2
Outro x4
comments
We did not receive enough feedback on this tab! Please rate:
print report bad tab
1 2 3 4 5
I want to post or [tab]
guest
You may want to rate the tab now too:
select rating
Please do not post tabs as comments. Select "correction" instead!