Oops, an error
Loading. Please wait.

Bank Robber Bass Tab

10,295 views 9 this week
1 commentread comment
1 2 3 4 5
accurate
x 13
add to favorites
launch autoscroll
font size
0
reset
guitar tuner
Tab Pro tools
  • play this tab
  • loop segment
  • change instrument
  • show fretboard
  • metronome
×
Best way to learn
"Bank Robber"
Autoscroll
slow
fast
+/-
esc
set tempo
stop
Bankrobber Bass Tablature
by the clash
Transcribed by:
Matt Schild (batmatt@holly.ColoState.EDU)

Here are the notes:

G-D-D-D-D-D G-D-D-D G-D-D-D-D-D-A-D

G-D-D-D-D-D G-D-D-D-D-D C D G-G-G-G-G
Pretty simple line to play

Here's the tab:

bass
G------------------------------------------------------|
D------------------------------------------------------|
A----5-5-5-5-5---5-5-5------5-5-5-5-5-0-----5-5-5-5-5--|
E--3-----------3----------3-------------3--3-----------|

bass
G------------------------------------------------------|
D------------------------------------------------------|
E---5-5-5-5-5--3--5------------------------------------|
A-3------------------3-3-3-3-3-------------------------|
comments
print report bad tab
1 comment total.
-1 reply
beano1 wrote on April 26 2013, 06:09 pm

Not sure why this hasn't been pointed out yet, but it's not:

G------------------------------------------------------|
D------------------------------------------------------|
A----5-5-5-5-5---5-5-5------5-5-5-5-5-0-----5-5-5-5-5--|
E--3-----------3----------3-------------3--3-----------|

It's:
G-------------------------------------------------------|
D--5-----------5----------5----------------5------------|
A----5-5-5-5-5---5-5-5------5-5-5-5-5-0------5-5-5-5-5--|
E---------------------------------------3---------------|

G------------------------------------------------------|
D-5----------------------------------------------------|
E---5-5-5-5-5--3--5------------------------------------|
A--------------------3-3-3-3-3-------------------------|

I want to post or [tab]
guest
You may want to rate the tab now too:
select rating
Please do not post tabs as comments. Select "correction" instead!