Oops, an error
Loading. Please wait.

Brand New Cadillac Tab

version 2
version 2

Whole song

Interactive

56,350 views 159 this week
5 commentsread comments
1 2 3 4 5
excellent!
x 18
add to favorites
launch autoscroll
font size
0
reset
how to read this tab
guitar tuner
Tab Pro tools
  • play this tab
  • loop segment
  • change instrument
  • show fretboard
  • metronome
Autoscroll
slow
fast
+/-
esc
set tempo
stop
Contributor
Band: The Clash
Song: Brand New Cadillac
Album: London Calling
Tabber: clark@theoddmenout

*= mute note
~= ring out

Intro Riff:       x6
e-------------------|
B-------------------|
G-------------------|
D-------------------|
A----------0-0-1-0--|
E--0-0-3-3----------|
   * * * * * * * * 

Verse 1 Lead:

e--12--12---12--12--------------------|--17--17---17--17-------------------|
B--12--12---12--12---12-------12------|--17--17---17--17---12------12------|
G-----------------------12~------12~--|-----------------------12~-----12~--|
D-------------------------------------|------------------------------------|
A-------------------------------------|------------------------------------|
E-------------------------------------|------------------------------------|

Verse 1 Rhythm:
E
My baby drove up in a Brand New Cadillac,
   A                                E
My baby drove up in a Brand New Cadillac

Chorus Lead:
e----------------------|------------------------------|
B--12-10-8---8---------|--12-----12-----12-----12-----|
G----------9---9-------|-----12-----12-----12-----12--|
D----------------9/-7--|------------------------------|
A----------------9/-7--|------------------------------|
E----------------7/-5--|------------------------------|

Chorus 1:
        B                         B-A
She said "Hey come here Big Daddy"
NC                  E      B
I ain't ever comin' back

Verse 2 Lead:           x2
e--12--12----12-12-12-12--|--5--5----5--5--------------------|
B--12--12----12-12-12-12--|--5--5----5--5-----12------12-----|
G-------------------------|----------------------12------12--|
A-------------------------|----------------------------------|
D-------------------------|----------------------------------|
E-------------------------|----------------------------------|

Verse 2 Rhythm:
E
Baby, Baby, won't you hear my plea? 
 A                                 E    
C'mon, sugar, just come on back to me

Chorus 2: (lead same)
           B                     B-A 
She said, "Balls to you Daddy, Big Daddy...

Solo:
e--------------------------------------------------------------------------|
B------12------12-12-----12-12-----12-12-----12-12-15-14-12-10-8-10-8------|
G--14b-----14b-------14b-------14b-------14b--------------------------9-9--|
D--------------------------------------------------------------------------|
A--------------------------------------------------------------------------|
E--------------------------------------------------------------------------|

e---------------------12-------12-------12--------12---------------|
B-------8-10----------12-------12-------12--------12--12-12-12-12--|
G--8b9--------14-14b------14b------14b------14br-------------------|
D------------------------------------------------------------------|
A------------------------------------------------------------------|
E------------------------------------------------------------------|

e-------------------|----------------------|------------------------------|
B-----12-12--12-----|--12-10-8---8---------|--12-----12-----12-----12-----|
G--14-----------12--|----------9---9-------|-----12-----12-----12-----12--|
D-------------------|----------------9/-7--|------------------------------|
A-------------------|----------------9/-7--|------------------------------|
E-------------------|----------------7/-5--|------------------------------|

Verse 3 Lead:
e-----------12-12-12-12---12-12-12-12--|-----5--5--------------------------|
B-----------12-12-12-12---12-12-12-12--|-----5--5---12-12----11/12--12-----|
G--------------------------------------|------------------14-----------12--|
D--------------------------------------|-----------------------------------|
A--------------------------------------|-----------------------------------|
E--------------------------------------|-----------------------------------|

Verse 3 Rhythm:
E
Baby, Baby, won't you hear my plea? 
 A                  E    
C'mon, just hear my plea!

Chorus 3: (lead same)
           B                  B-A 
She said, "Balls to you Daddy"
NC                       E    B
She ain't comin' back to me...

Verse 4:
E        
Baby, baby drove up in a Cadillac
        A                                  E
I said "J- C-, where did you get that Cadillac

Chorus 3

Outro:                             x3
e------------------------------------|
B------------------------------------|
G------------------------------------|
D---------------------------0-0-1-0--|
A----------0-0-1-0--0-0-3-3----------|
E--0-0-3-3---------------------------|
   * * * * * * * *  * * * * * * * * 

Intro Riff x3

e-----0~--|
B-----2~--|
G--9--1~--|
D--9--2~--|
A--7--2~--|
E-----0~--|

That's it! For suggestions, corrections, and requests, email me:
                        oddmenout4@yahoo.com
comments
print report bad tab
5 comments total. Showing first comments.
0 reply
Indie Purist wrote on January 1 2007, 01:27 am

Half of the intro is moved up a string so three times up one

0 reply
chaz mac wrote on March 2 2007, 02:42 pm

brilliant

0 reply
MiScHiEf BrEw wrote on June 9 2007, 11:52 pm

Right after the "now come here daddy" part where I'm playing B, I like to hit Bb once on my way up to A, if that makes any sense. So it would look a little something like this:
B Bb A E B
Now come here daddy...she ain't ever coming back!

Anyways, great tab!

I want to post or [tab]
guest
You may want to rate the tab now too:
select rating
Please do not post tabs as comments. Select "correction" instead!