Oops, an error
Loading. Please wait.

Capital Radio Bass Tab

version 2
version 2

Whole song

525 views 1 this week
no commentswrite comment
1 2 3 4 5
please rate
add to favorites
launch autoscroll
font size
0
reset
guitar tuner
Tab Pro tools
  • play this tab
  • loop segment
  • change instrument
  • show fretboard
  • metronome
×
Best way to learn
"Capital Radio"
Autoscroll
slow
fast
+/-
esc
set tempo
stop
Difficulty
novice
cancion - capital radio one
grupo- the clash
tab hecho por - abraham jersain delgado vilchis

intro
g------------------------------------------------------|
d---22-----22----22-----22---22-----22-----------------|
a-----42-24--420---42-24--240--42-24--420-----47----69-|
e------------------------------------------5-----7-----|
verso
g--------------------------------------------|
d---22--22---22--22---22--22-------47----69--|
a-----22--00---22--00---22--44--5-----7------|
e--------------------------------------------|


g------------------------------------------|
d---22--22---22--22----2---4---7--7--9--9--|
a-----22--00---22--00----------------------|
e------------------------------------------|

g------------------------------------------------------|
d---22-----22----22-----22---22-----22-----------------|
a-----42-24--420---42-24--240--42-24--420-----47----69-|
e------------------------------------------5-----7-----|

g------------------------------------------------------|
d---22-----22----22-----22----2---4---7--7--9--9-------|
a-----42-24--420---42-24--240--------------------------|
e------------------------------------------------------|


g------------------------|
d------------------------|
a--7-7-70-4-4-40---------|
e---------------55--700--|  x 15

g------------------------|
d------------------------|
a--7-7-0-4-4-0---------7-|
e-------------5-5-7-7-0--|
comments
We did not receive enough feedback on this tab! Please rate:
print report bad tab
1 2 3 4 5
I want to post or [tab]
guest
You may want to rate the tab now too:
select rating
Please do not post tabs as comments. Select "correction" instead!