Oops, an error
Loading. Please wait.

Card Cheat Bass Tab

2,082 views 1 this week
no commentswrite comment
1 2 3 4 5
please rate
add to favorites
launch autoscroll
font size
0
reset
guitar tuner
Tab Pro tools
  • play this tab
  • loop segment
  • change instrument
  • show fretboard
  • metronome
×
Best way to learn
"Card Cheat"
Autoscroll
slow
fast
+/-
esc
set tempo
stop
Contributor
Main Riff
G------------------------------------------------|
D------------------------------------------------|
A---3-3-3-3-3-3--5--3----------------------------|
E------------------------------------------------|

"..he only wanted more time.."
G--------------------------------------------------|
D--3-3-3-3-3-3-3-3-3-2--0--------------------------|
A---------------------------3-3-3-3-3-3-3-3-2--0---|
E--------------------------------------------------|

G---------------------------------------------------------|
D-------------------------3-2--0-0------------------------|
A---------------------------------------------------------|
E--3-3-3-3-3-3-3-3-3-3-3----------------------------------|
comments
We did not receive enough feedback on this tab! Please rate:
print report bad tab
1 2 3 4 5
I want to post or [tab]
guest
You may want to rate the tab now too:
select rating
Please do not post tabs as comments. Select "correction" instead!