Oops, an error
Loading. Please wait.

Cheat Bass Tab

1,502 views 6 this week
1 commentread comment
1 2 3 4 5
please rate
add to favorites
launch autoscroll
font size
0
reset
guitar tuner
Tab Pro tools
  • play this tab
  • loop segment
  • change instrument
  • show fretboard
  • metronome
×
Best way to learn
"Cheat"
Autoscroll
slow
fast
+/-
esc
set tempo
stop
Contributor
Intro
G--------------------------------|
D--------------------------------|
A----5--7---5--7--5---7----------|
E--------------------------------|

Verse 1st time only (Comes in after "Don't get none I go wild")
G----------------------------------|
D----------------------------------|
A---------------------7777777777777|
E----------------------------------|

Verse Main ( I don't know what can be done....")
G------------------------------------------|
D------------------------------------------|
A-000-555-000-555-000-555-7766442200--0022-|
E-----------------------------------44-----|

Chours
G------------------------------------------------------|-----|
D------------------------------------------25----------|-----|
A----3-33333-------------2-5---0-00000-3-33----5-55555-|-77--|
E------------1-11111-3-33------------------------------|-----|

Bridge (Phaser part)      x2 
G------------------------|------------------|
D---66-77-88-99-88-7--6--|------------------|
A-77---------------------|--777777777777777-|
E------------------------|------------------|

Verse Main (....No body knows what they are doing)
G------------------------------------------|
D------------------------------------------|
A-000-555-000-555-000-555-7766442200--0022-|
E-----------------------------------44-----|

Outro                   or                   or
G----------------------|--------------------|-----------------|
D---11-44--------------|--------------------|----------667788-|
A-22------0000-777777--|-2222-0000-77777777-|-22-00--77-------|
E----------------------|--------------------|-----------------|

For the Outro just play what sounds best

RATE IT


comments
We did not receive enough feedback on this tab! Please rate:
print report bad tab
1 2 3 4 5
1 comment total.
0 reply
SehestedtSM wrote on May 17 2010, 08:48 pm

FOR THE OUTRO, IT SOUNDS LIKE:


|-----------------|
|-----------------|
|---66-99-98-7777-|
|-77---------------|

I want to post or [tab]
guest
You may want to rate the tab now too:
select rating
Please do not post tabs as comments. Select "correction" instead!