Oops, an error
Loading. Please wait.

Cheat Tab

4,204 views 9 this week
no commentswrite comment
1 2 3 4 5
accurate
x 2
add to favorites
launch autoscroll
font size
0
reset
how to read this tab
guitar tuner
Tab Pro tools
  • play this tab
  • loop segment
  • change instrument
  • show fretboard
  • metronome
Autoscroll
slow
fast
+/-
esc
set tempo
stop
Contributor
INTRO:  D  E   D  E   D  E       
e|------2------2------2-----------------------|
B|------3------3------3-----------------------|
G|------2--1---2--1---2--1---11111111111111---|
D|---------2------2------2---22222222222222---|
A|---------2------2------2---22222222222222---|
E|--------------------------------------------|

VERSE:
       A  D   A  D   A  D  E
e|--------2------2------2-------|
B|-----2--3---2--3---2--3-------|
G|-----2--2---2--2---2--2--2----|
D|-----2------2------2-----2----|
A|-------------------------1----|
E|------------------------------|

VERSE2:
e|------------2-2-2-----------2-2-2-----------2-2-2----------------------|
B|----2-2-2---3-3-3---2-2-2---3-3-3---2-2-2---3-3-3----------------------|
G|----2-2-2---2-2-2---2-2-2---2-2-2---2-2-2---2-2-2---1-11111111111111---|
D|----2-2-2-----------2-2-2-----------2-2-2-----------2-22222222222222---|
A|----------------------------------------------------2-22222222222222---|
E|-----------------------------------------------------------------------|

CHORUS: 
e|------------1-11111-3-33333------------------2-22222------|
B|----1-11111-1-11111-3-33333-1-11111--1-11111-3-33333------|
G|----0-00000-2-22222-0-00000-2-22222--0-00000-2-22222------|
D|----2-22222-3-33333-0-00000-2-22222--2-22222--------------|
A|----3-33333-3-33333-2-22222----------3-33333--------------|
E|------------1-11111-3-33333-------------------------------|

e|---7 -----2--2--4--4--------|------22------22--------22-----------------|
B|---10----3--3--5--5--2--2--|------33------33--------33-----------------|
G|---9 ----2--2--6--6--2--2--|--1---22--1---22--1--------1-1-1-1-1-1-1-1-|
D|---9 ----------6--6--2--2--|--2-------2-------2--------2-2-2-2-2-2-2-2-|
A|---7 ----------4--4--------|--2-------2-------2--------2-2-2-2-2-2-2-2-|
E|---7 ----------4--4--------|-------------------------------------------|

CHORUS2:
e|------------1-11111-3-33333------------------2-22222|-------------------|
B|----1-11111-1-11111-3-33333-1-11111--1-11111-3-33333|-------------------|
G|----0-00000-2-22222-0-00000-2-22222--0-00000-2-22222|1111111111111111---|
D|----2-22222-3-33333-0-00000-2-22222--2-22222--------|2222222222222222---|
A|----3-33333-3-33333-2-22222----------3-33333--------|2222222222222222---|
E|------------1-11111-3-33333-------------------------|-------------------|

OUTRO:
e|--2--2-2-----------------------|
B|--3--3-3---2--2-2--------------|
G|--4--4-4---2--2-2---1--1-1-1---|
D|--4--4-4---2--2-2---2--2-2-2---|
A|--2--2-2------------2--2-2-2---|
E|--2--2-2-----------------------|

SOLO: Play this twice
e|----------------------------------------------------------------|
B|----------------------------------------------------------------|
G|--9--7---9--7---9--7--9--7--9--7--9--7--[x3]--9--7---9--7--10~~-|
D|----------------------------------------------------------------|
A|----------------------------------------------------------------|
E|----------------------------------------------------------------|
then:
e|----------|
B|----------|
G|--10-12-9-|play as many times u want, to the end of the song 
D|----------|
A|----------|
E|----------|
comments
We did not receive enough feedback on this tab! Please rate:
print report bad tab
1 2 3 4 5
I want to post or [tab]
guest
You may want to rate the tab now too:
select rating
Please do not post tabs as comments. Select "correction" instead!