Oops, an error
Loading. Please wait.

City Of The Dead Tab

2,691 views 1 this week
2 commentsread comments
1 2 3 4 5
accurate
x 3
add to favorites
launch autoscroll
font size
0
reset
how to read this tab
guitar tuner
Tab Pro tools
  • play this tab
  • loop segment
  • change instrument
  • show fretboard
  • metronome
×
Best way to learn
"City Of The Dead"
Autoscroll
slow
fast
+/-
esc
set tempo
stop
Contributor
-----------------------------------------------------------------------------
                             The Clash - City Of The Dead (Live)
----------------------------------------------------------------------------
Tabbed by: N.Coughlan

This is City of the dead off the live album "live from here to eternity"
This song rocks.

Tuning: Standard

Intro:
   {Play 2 times}
|------------------------|--------------------------------------------|
|----------12-15---------|----------12--15b--15--15b--15--12----12----|
|-12-12-14-------12-12~--|-12-12-14--------------------------14----12-|
|------------------------|--------------------------------------------|
|------------------------|--------------------------------------------|
|------------------------|--------------------------------------------|

Verse:
G                       F
This is the City of the dead
e|-----------------------------------|
B|-----------------------------------|
G|-----------------------------------| 
D|---------------------3--2----------| 
A|-------2--3------------------------|
E|---3------------1------------------|

C                       G
As we lie side by side in bed
e|-----------------------------------|
B|-----------------------------------|
G|-----------------------------------|
D|-----------------------------------|
A|---3--2--3-------------2--3--------|
E|--------------------3--------------|

G                       F
I'd do something else instead
e|-----------------------------------|
B|-----------------------------------|
G|-----------------------------------| 
D|---------------------3--2----------| 
A|-------2--3------------------------|
E|---3---------------1---------------|

C                       G
But its the city of the dead
e|-----------------------------------|
B|-----------------------------------|
G|-----------------------------------|
D|-----------------------------------|
A|---3--2--3------------2--3---------|
E|-------------------3---------------|


C           G
We went out kicking around

F                 C
But you got drunk and and fallen down

C                G
An' I wished I could be like you

e|-----------------------|
B|----------------12-----|
G|---12--12---14------12-|
D|-----------------------|
A|-----------------------|
E|-----------------------|

G                  
With the soho river drinking me down

Repeat the verse two more times

The solo is just a variant of the verse.
comments
We did not receive enough feedback on this tab! Please rate:
print report bad tab
1 2 3 4 5
2 comments total.
-1 reply
gazblade wrote on January 11 2006, 09:02 am

Non-accurate intro, short tab and wrong chords in verse. G F C G not G F G F like you put

0 reply
Nath_Frusciante wrote on October 9 2009, 10:32 am

calm down..

I want to post or [tab]
guest
You may want to rate the tab now too:
select rating
Please do not post tabs as comments. Select "correction" instead!