Oops, an error
Loading. Please wait.

Clash City Rockers Bass Tab

version 2
version 2

Whole song

Interactive

4,007 views 15 this week
no commentswrite comment
1 2 3 4 5
excellent!
x 3
add to favorites
launch autoscroll
font size
0
reset
guitar tuner
Tab Pro tools
  • play this tab
  • loop segment
  • change instrument
  • show fretboard
  • metronome
Autoscroll
slow
fast
+/-
esc
set tempo
stop
Difficulty
novice
Artist: Clash
Song:   Clash City Rockers
Album:  The Clash

No bass during intro

Verse:
G:|----------------|----------------|
D:|----------------|----------------|
A:|-77--55---------|-------------77-|
E:|---------55--33-|-77--55--77-----|

Alternative way of playing the Verses:
G:|----------------|----------------|
D:|-22--00---------|--------------22|
A:|---------00-----|-22---00---22---|
E:|-------------33-|----------------|

Chorus:
G:|----------------|----------------|
D:|----------------|----------------|
A:|4444444444444444|2222222222222222|
E:|----------------|----------------|

G:|----------------|----------------|
D:|----------------|-22--------22---|
A:|0000000000000000|------22--------|
E:|----------------|----------------|

Bridge:
G:|----------------|----------------|
D:|----------------|22222222--------|
A:|0000000022222222|--------00000000|
E:|----------------|----------------|

G:|----------------|----------------|
D:|----------------|----------------|
A:|00000000--------|----------------|
E:|--------44444444|2222222200000000|

Repeat the last two bars of the bridge the second time you play it

Outro:
G:|----------------|----------------|
D:|----------------|----------------|
A:|7*--------------|7*--------------|
E:|----------------|----------------|
*Let note ring

Song Order
Verse: x4
Chorus:x2
Verse: x2
Chorus:x2
Verse  x5 (First 2 times are during the guitar solo)
Bridge:x2
Verse: x3
Outro: Just play it out til the song ends
comments
We did not receive enough feedback on this tab! Please rate:
print report bad tab
1 2 3 4 5
I want to post or [tab]
guest
You may want to rate the tab now too:
select rating
Please do not post tabs as comments. Select "correction" instead!