Oops, an error
Loading. Please wait.

Clash City Rockers Tab

version 4
version 4

Whole song

Interactive

8,269 views 15 this week
3 commentsread comments
1 2 3 4 5
excellent!
x 8
add to favorites
launch autoscroll
font size
0
reset
how to read this tab
guitar tuner
Tab Pro tools
  • play this tab
  • loop segment
  • change instrument
  • show fretboard
  • metronome
×
Best way to learn
"Clash City Rockers"
Autoscroll
slow
fast
+/-
esc
set tempo
stop
Contributor
Difficulty
novice
Standard Tuning (EADGBE)

The Clash:Clash City Rockers

Main Riff x5
|-----------------------------|
|-----------------------------|
|-9-9-7-7-------------------9-|
|-9-9-7-7-7-5-5-9-9-7-7-9-9-9-|
|-7-7-5-5-7-5-5-9-9-7-7-9-9-7-|
|---------5-3-3-7-7-5-5-7-7---|

Chorus Riffs x2
|-------------------------------------------------------------------------|
|-------------------------------------------------------------------------|
|-6-6-6-6-6-6-6-6-6-6-6-6-------------------------------------------------|
|-6-6-6-6-6-6-6-6-6-6-6-6-9-9-9-9-9-9-9-9-9-9-9-9-7-7-7-7-7-7-7-7-7-7-7-7-|
|-4-4-4-4-4-4-4-4-4-4-4-4-9-9-9-9-9-9-9-9-9-9-9-9-7-7-7-7-7-7-7-7-7-7-7-7-|
|-------------------------7-7-7-7-7-7-7-7-7-7-7-7-5-5-5-5-5-5-5-5-5-5-5-5-|

|-----------|
|-----------|
|-9-9-----9-|
|-9-9-9-9-9-|
|-7-7-9-9-7-|
|-----7-7---|

Main Riff x2

Chorus Riff x2

Solo Riff
|------------------------------------------------------------|
|--------------------------9b11---9---9-9-9-9-9-9-9-7---8b10-|
|------------------------9------9---9-----------------7------|
|-9b11---9-9-9-9-9-7-6---------------------------------------|
|----------------------9-------------------------------------|
|------------------------------------------------------------|

Main Riff x2

Pre-bridge Riff
|---------|
|---------|
|-9---9-9-|
|-9---9-9-|
|-7---7-7-|
|---------|

Bridge Riff A&B x2 then B
|-----------------|---------------|
|-----------------|---------------|
|---------9-------|---------------|
|-7-7/9-9-9-7-7-7-|-7-7/6-6/4-4/2-|
|-7-7/9-9-7-7-7-7-|-7-7/6-6/4-4/2-|
|-5-5/7-7---5-5-5-|-5-5/4-4/2-2/0-|

Main Riff x3

Outro x21 (Start to slowly fade on the 16th time)
|-----|
|-----|
|-9---|
|-9---|
|-7---|
|-----|

by Kevin Johnson (elementos)
comments
print report bad tab
3 comments total.
0 reply
elementos wrote on July 1 2006, 09:13 am


one tiny mistake in the
|--- ---|
|--- ---|
|--- ---|
|-4- -2-|
|-4- -4-|
|-2-powerchord...i accidentally typed it like this-2-|

that mistake is in the bridge riff B

0 reply
Mcut202 wrote on July 1 2006, 10:35 pm

This is probably the best tab of this song yet.

0 reply
elementos wrote on July 3 2006, 06:18 pm

**** my first comment i fixed it

I want to post or [tab]
guest
You may want to rate the tab now too:
select rating
Please do not post tabs as comments. Select "correction" instead!