Oops, an error
Loading. Please wait.

Complete Control Bass Tab

version 1
version 1

Whole song

Interactive

8,550 views 18 this week
2 commentsread comments
1 2 3 4 5
excellent!
x 4
add to favorites
launch autoscroll
font size
0
reset
guitar tuner
Tab Pro tools
  • play this tab
  • loop segment
  • change instrument
  • show fretboard
  • metronome
×
Best way to learn
"Complete Control"
Autoscroll
slow
fast
+/-
esc
set tempo
stop
Contributor
song: Complete control
author: The Clash
bass tabber: bOldra@tiscali.it (change b0ldra to boldra)
It's my interpretation of song. No commercial use!
INTRO
----------------------------------
----------------------------------
7--------7--7---------444455556666
---5--7--------5--7777------------
                                                                                          
VERSE
-------------------------------
----------6-9------------------
7777777777-------------77777777
---------------77777777--------
                                                                                          
BRIDGE
-------------------------------------------
-------------------------------------------
4-44p2------7-77p5-4-44p2------444455556666
------5-7-77-------------5-7777------------
                                                                                          
SOLO
Do the verse part X2 then:
------------------------------------------------
------------------------------------------------
4-44--------------------4-44----7777777777777777
----5-553333333333333333----5-55----------------
                                                                                          
FINAL PART
This part is mostly played by guitar..
---------------------
---------------------
-----4--------7------
---------------------
                                                                                          
FINAL FINAL PART
* means: play 8
---------------------
---------------------
-----4*4*5*---7*7*---
-7*5*------5*--------
comments
print report bad tab
2 comments total.
0 reply
boldra wrote on December 23 2003, 12:00 am

A little correction, here is the correct intro

INTRO
----------------------------------
----------------------------------
4--------7--4---------444455556666
---5--7--------5--7777------------

boldra

0 reply
loonystan wrote on January 5 2013, 03:44 pm

What a load of rubbish

I want to post or [tab]
guest
You may want to rate the tab now too:
select rating
Please do not post tabs as comments. Select "correction" instead!