Oops, an error
Loading. Please wait.

Complete Control Tab

version 1
version 1

Whole song

Interactive

13,116 views 6 this week
1 commentread comment
1 2 3 4 5
x 4
add to favorites
launch autoscroll
font size
0
reset
how to read this tab
guitar tuner
backing track
0:00
0:00
×
Best way to learn
"Complete Control"
Autoscroll
slow
fast
+/-
esc
set tempo
stop
Introuction:
---------------------------------------------------------------------------------------------------------------------------|
-----------------------------------------------------------------------------------------------------------10h--9----9-----|
--9--9------9--------9------------------------------------9----9-----9-------9-------9---------9----9----------9--------9--|
--9--9------7--------9----------------------9------------9----9-----9-------9-------9---------9----9----------9--------9---|
--7--7------7--------7-------7--11h7----7------------7----7-----7-------7-------7---------7----7----------7--------7-------|
---------------------------------------------------------------------------------------------------------------------------|

verse:They said release remote control,----but we didnt want it on the label
They said fly to amsterdam,  the people laughed but the press went mad    repeat for the other two verses

----------------------------------------------------------------------------------------------------------------------------------------------------------------------------|
----------------------------------------------------------------------------------------------------------------------------------------------------------------------------|
-9----9--------9-----------9---------------------------9-------9------------------------------------------------------------------------------------------------------------|
-9----9--------9-----------9---------------------------9-------9-------9--------9-----------9-----------------9-----------------9---9---------------------9----------9------|
-7----7--------7-----------7------7----11h---7-----7-------7-------9--------9------------9----------------9-----------------9---7---------------------7----------9----------|
----------------------------------------------------------------------------7--------7-----------7-----------------7----------------7---7---------------------7-----------7-|


----
----
----
---9
---7
---7

Ooh_____someone's rlly smart,           Ohh________complete control, yeah thats a laugh


--9----------------------------5-------------------------7-----------------------------------------------------------9---------------------------5--|
--9----------------------------5-------------------------7------------------------------9----------------------------9--------------------------5---|
--9----------------------------6-------------------------8------------------------------9----------------------------9--------------------------6---|
--11--------------------------7--------------------------9-----------------------------9----------------------------11------------------------7-----|
--11--------------------------7--------------------------9-----------------------------7----------------------------11------------------------7-----|
--9----------------------------5--------------------------7-----------------------------7----------------------------9--------------------------5---|


--7-------7---------7-------7--------------------------------------------------|
--7-------7---------7------7    X4       end with  7                7----------|
--8-------8---------8------8                                7                7-|
--9-------9--------9-------9                                 8               8-|
--9-------9--------9-------9                                  9              9-|
--7-------7--------7-------7                                   9             9-|
                                                                          7            7

solo

-----------12--12--------------12-------------12----12-----------------12-----------12-------------------12---------------------------------------------12-----|
---12-----12--12--------------12------------12----12-----------------12-----------12--------------------------12--------------------------------------12-------|
----------------------14^----------------14^-------------------14^-------------14^-----------14^--12-------------------14-----12h13----------------------------|
-----------------------------------------------------------------------------------------------------------------------------------------------------------14--|
---------------------------------------------------------------------------------------------------------------------------------------------------------------|
---------------------------------------------------------------------------------------------------------------------------------------------------------------|

-------------------------------------------------------------------------------19-------------------------------------------------------------------------|
---------------------------------15------15/17------------19^----------------19---------19^--------19^------17-----------------------19-----19-------19^--|
----14------12h14h12--------------------------------------------------------------------------------------------------------------------------------------|
----------------------------------------------------------------------------------------------------------------------------------------------------------|
----------------------------------------------------------------------------------------------------------------------------------------------------------|
----------------------------------------------------------------------------------------------------------------------------------------------------------|


---19-----------------------------------------------------------------------19---------------------------------------|
--------19^-----------19^-----------------19------19--------19^----------------19^-----------------------------------|
---------------------------------------------------------------------------------------------------------------------|
-----------------------------------------------------------------------------------------------------12h14-------14--| (vibrate the this note)
---------------------------------------------------------------------------------------------------------------------|
---------------------------------------------------------------------------------------------------------------------|

I dont trust u: why do u trust me
e--1212----12-12-12-12-12---12-12----12-12-12-12-12-12-12-12-12-12-12-12-12-12-12-12-12-12-12-

then repeat chorus: for end
Suggest correction
comments
print report bad tab
1 comment total.
0 reply
The_Fuzz22 51 May 23, 2007 10:25 AM

Ok so the layout's not incredible, but when you get around the odd positiong of all the numbers, this actually sounds right.

Sort that out and it's more less perfect.

guest
You may want to rate the tab now too:
select rating
Wanna post a correction for this tab? Suggest correction