Oops, an error
Loading. Please wait.

English Civil War Bass Tab

version 1
version 1

Whole song

Interactive

3,193 views 9 this week
no commentswrite comment
1 2 3 4 5
accurate
x 3
add to favorites
launch autoscroll
font size
0
reset
guitar tuner
Tab Pro tools
  • play this tab
  • loop segment
  • change instrument
  • show fretboard
  • metronome
×
Best way to learn
"English Civil War"
Autoscroll
slow
fast
+/-
esc
set tempo
stop
Contributor
(Only Riff)
G---------------------------------------------------------|
D-----------------------------------22-2-22---------------|
A-0-00-0-000-0---------0-00-0-000-0---------33-3333-------|
E--------------33-3-33-----------------------------3-3333-|

...continued
G------------------------------------|
D-------------------2-0--------------|
A-0-0000-0-3-3333-3-----3-2-0-00-000-|
E------------------------------------|
comments
We did not receive enough feedback on this tab! Please rate:
print report bad tab
1 2 3 4 5
I want to post or [tab]
guest
You may want to rate the tab now too:
select rating
Please do not post tabs as comments. Select "correction" instead!