Oops, an error
Loading. Please wait.

Every Little Bit Hurts Bass Tab

768 views 1 this week
no commentswrite comment
1 2 3 4 5
please rate
add to favorites
launch autoscroll
font size
0
reset
guitar tuner
Tab Pro tools
  • play this tab
  • loop segment
  • change instrument
  • show fretboard
  • metronome
×
Best way to learn
"Every Little Bit Hurts"
Autoscroll
slow
fast
+/-
esc
set tempo
stop
Contributor
(15 seconds in)
G--------------------------|------------|
D--------------------------|------------|
A-3----2----0--------------|------------|
E----------------3----1--3-|-1----3-----|

(33 seconds in after break)

              (every little..)(every little..)
G------------|---------------|---------------|
D------------|---------------|---------------|
A---------0--|-3------------0|-3------------0|
E-3-1-3-1----|------3/1----3-|------3/1----3-|

G--------------------------|---------------------------|
D--------------------------|-------------------5---5---|
A-3----2----0--------------|---------------------------|
E----------------3----1--3-|-1---3---1---3---1---1-----| 

G--------------------------|---------------------------|
D--------------------------|-------------------5---5---|
A-3----2----0--------------|---------------------------|
E----------------3----1--3-|---------1-----------------|
                           (Come back to me)
G------------------------|---------------------------------|
D------------------------|---------------------------------|
A-----------------------5|---------------------------------|
E-1-----3-2-----1------3-|-3-4-5--3-4-5--3-4-5--5--5--5--3-|

___________________________________________________________________

This was hard as fuck to tab, but thats the jist of it
comments
We did not receive enough feedback on this tab! Please rate:
print report bad tab
1 2 3 4 5
I want to post or [tab]
guest
You may want to rate the tab now too:
select rating
Please do not post tabs as comments. Select "correction" instead!