Oops, an error
Loading. Please wait.

I Fought The Law tab

version 5
version 5

Interactive

6,523 views 1 this week
no commentswrite comment
1 2 3 4 5
1 last vote to show rating
add to favorites
×
Save as Personal and add changes to this tab that will be seen only by you. Learn more ›
×
You can save this tab as Personal to edit and correct it or add notes. All changes will be seen only by you. Learn more »
launch autoscroll
font size
0
reset
how to read this tab
guitar tuner
edit
Autoscroll
slow
fast
+/-
esc
set tempo
stop
Author
----------------------------------------------------------------------------
                             I Fought The Law - The Clash
----------------------------------------------------------------------------
Tabbed by: Matt
Email: mattsnyder@yahoo.com
Tuning: normal


I’m 95% sure that this tab is correct, I've watched videos of The Clash and Joe Strummer 
The Mescaleros playing it and i've tabbed it the best I could. When I play this song I 
to play Joe Strummer's part(Guitar 2) because i think power cords are more fun play.

The Clash       http://www.youtube.com/watch?v=16u0wwCfoJ4&feature=re       The 
 http://www.youtube.com/watchv=lSCkAfW1Gaw&feature=related

Guitar 1 = Mick Jones
Guitar 2 = Joe Strummer(Rythm)


INTRO
Guitar 1
e|----------------------------------------------------------------------|
B|-11/13-13-13-13-13--11/13-13-13--11/13-13-13--11/13-13-13--13-11-10-6-|
G|----------------------------------------------------------------------|
D|----------------------------------------------------------------------|
A|----------------------------------------------------------------------|
E|----------------------------------------------------------------------|

Guitar 2
e|----------------------------------------------------------------------|
B|----------------------------------------------------------------------|
G|-10-10-10-10-10-10-----------------------------10-10-10-10---------10-|
D|-10-10-10-10-10-10--8-8-8-8-8-8-8/10-10-10-10--10-10-10-10--10-8-7-10-|
A|-8--8--8--8--8--8---8-8-8-8-8-8-8/10-10-10-10--8--8--8--8---10-8-7-8--|
E|--------------------6-6-6-6-6-6-6/8--8--8--8----------------8--6-5----|
__________________________________________________________________________

VERSE
Guitar 1(strum lightly)

     Breaking rocks in... I fought the law...                    x2
e|-2-2-2-2-2-3-3-3-2--|-2-2-2-2-2-2-3-2--|---3---2--|
B|-3-3-3-3-3-3-3-3-3--|-3-3-3-3-3-3-3-3--|-2-3-1-3--|
G|-2-2-2-2-2-------2--|-2-2-2-2-2-2---2--|-2---2-2--|
D|--------------------|------------------|-2---3----|
A|-----------2-2-2----|-------------2----|---2-3----|
E|-----------3-3-3-|x1|-------------3-|x2|---3------|

Guitar 2(strum hard)

     Breaking rocks in...        I fought the law...                    x2
e|-----------------------------|--------------------------|------------|
B|-----------------------------|--------------------------|------------|
G|-10-10-10-10-10----------10--|-10-10-10-10-10-10----10--|--------10--|
D|-10-10-10-10-10-10-10-10-10--|-10-10-10-10-10-10-10-10--|-10-8-7-10--|
A|-8--8--8--8--8--10-10-10-8---|-8--8--8--8--8--8--10-8---|-8--8-7-8---|
E|----------------8--8--8---|x1|-------------------8---|x2|-8--6-5-----|
__________________________________________________________________________

CHORUS
Guitar 1(Strum Lightly)
    Left my baby...
e|-3-3-3-3-3-3-3-3-3-3-3--2-2-2-2-2-2-2-2-2-2-2--3-3-3-3-3-3-3-3-3-3-3--|
B|-3-3-3-3-3-3-3-3-3-3-3--3-3-3-3-3-3-3-3-3-3-3--3-3-3-3-3-3-3-3-3-3-3--|
G|------------------------2-2-2-2-2-2-2-2-2-2-2-------------------------|
D|----------------------------------------------------------------------|
A|-2-2-2-2-2-2-2-2-2-2-2-------------------------2-2-2-2-2-2-2-2-2-2-2--|
E|-3-3-3-3-3-3-3-3-3-3-3-------------------------3-3-3-3-3-3-3-3-3-3-3--|

Guitar 2(Strum Hard)
     Left my baby...
E|----------------------------------------------------------------------|
B|----------------------------------------------------------------------|
G|------------------------7-7-7-7-7-7-7-7-7-7-7-------------------------|
D|-5-5-5-5-5-5-5-5-5-5-5--7-7-7-7-7-7-7-7-7-7-7--5-5-5-5-5-5-5-5-5-5-5--|
A|-5-5-5-5-5-5-5-5-5-5-5--5-5-5-5-5-5-5-5-5-5-5--5-5-5-5-5-5-5-5-5-5-5--|
E|-3-3-3-3-3-3-3-3-3-3-3-------------------------3-3-3-3-3-3-3-3-3-3-3--|
___________________________________________________________________________

SOLO
Guitar 1
e|------------------------------------17-------|
B|-----------------10----11----13/18-----------|
G|---------10/12-------------------------------|
D|-10/12---------------------------------------|
A|---------------------------------------------|
E|----------------------------------------|x3--|

Guitar 2
e|-----------------------------|-----------------------------|
B|-----------------------------|-----------------------------|
G|-----------------------------|-1010x-------10-10-10-10-10--|
D|-8-~~~~~~~~~~~~~~~~~~~~~~~~~-|-1010x-10-10-10-10-10-10-10--|
A|-8-~~~~~~~~~~~~~~~~~~~~~~~~~-|-8-8-x-10-10-8--8--8--8--8---|
E|-6-~~~~~~~~~~~~~~~~~~~~~~~~~-|-------8--8------------------|x3
______________________________________________________________

Pre Outro
Guitar 1
e|----------------------------------------------------------------------|
B|-11/13-13-13-13-13--11/13-13-13--11/13-13-13--11/13-13-13--13-11-10-6-|
G|----------------------------------------------------------------------|
D|----------------------------------------------------------------------|
A|----------------------------------------------------------------------|
E|----------------------------------------------------------------------|

Guitar 2
e|----------------------------------------------------------------------|
B|----------------------------------------------------------------------|
G|-10-10-10-10-10-10-----------------------------10-10-10-10---------10-|
D|-10-10-10-10-10-10--8-8-8-8-8-8-8/10-10-10-10--10-10-10-10--10-8-7-10-|
A|-8--8--8--8--8--8---8-8-8-8-8-8-8/10-10-10-10--8--8--8--8---10-8-7-8--|
E|--------------------6-6-6-6-6-6-6/8--8--8--8----------------8--6-5----|
___________________________________________________________________________

Outro

Guitars 1&2
e|------------------------------------|------------------------------------|
B|------------------------------------|------------------------------------|
G|-10101010----------10101010-10101010|----------10101010-10101010---------|
D|-10101010-8-8-8-8--10101010-10101010|-10101010-10101010-10101010-8-8-8-8-|
A|-8-8-8-8--8-8-8-8--8-8-8-8--8-8-8-8-|-10101010-8-8-8-8--8-8-8-8--8-8-8-8-|
E|----------6-6-6-6-------------------|-8-8-8-8--------------------6-6-6-6-|
PM ************************************************************************

e|------------------------|--------------------------------------|
B|------------------------|--------------------------------------|
G|-10-10-10-10-10-10-10-10|-10-10-10-10------------10~~~~~~~~~~~~|
D|-10-10-10-10-10-10-10-10|-10-10-10-10--10--8--7--10~~~~~~~~~~~~|
A|-8--8--8--8--8--8--8--8-|-8--8--8--8---10--8--7--8~~~~~~~~~~~~~|
E|------------------------|--------------8---6--5----------------|
PM ************************                        Let it ring~~~


| /  slide up
| \  slide down
| h  hammer-on
| p  pull-off
| ~  vibrato
| +  harmonic
| x  Mute note
===============================================================================

            
            
Suggest correction
Creating personal tab
Creating personal tab
You can edit any tab online and save it as your Personal.

You can edit, replace or remove any tab part or add personal notes – all changes will be seen only by you.

Personal tabs can be accessed anytime from any device, even offline.
Learn more »
Give kudos to tab author, rate the tab!
1 2 3 4 5
comments
print report bad tab
guest
You may want to rate the tab now too:
select rating
Wanna post a correction for this tab? Suggest correction