Oops, an error
Loading. Please wait.

Last Gang In Town bass

1,876 views 1 this week
1 commentread comment
1 2 3 4 5
2 more votes to show rating
add to favorites
×
Save as Personal and add changes to this tab that will be seen only by you. Learn more ›
×
You can save this tab as Personal to edit and correct it or add notes. All changes will be seen only by you. Learn more »
launch autoscroll
font size
0
reset
guitar tuner
edit
Autoscroll
slow
fast
+/-
esc
set tempo
stop
Author
Difficulty
-----------------------------------------------------------------------------
			LAST GANG IN TOWN -- The Clash
-----------------------------------------------------------------------------

Tabbed By : John
Bassist: Paul Simonon
Tuning: Standard

One of the Clash's most underrated songs; from "Give 'Em Enough Rope"

This is the way I play it; sounds good to me

Intro

G|----------------------------------------------------------------------------| 2x
D|----------------------------------------------------------------------------|
A|--------1-------------------------------------------------------------------|
E|1------------------1----------111--1--111-----------------------------------|

Verse

G|-------------------------3x|-----------------------------------------------|
A|333------------------------|333--------------------------------------------|
A|---------------------------|----3-3-3-3-3-3-3-3-1-0------------------------|
E|----1-11-1-1-11-1-1-11-1-1-|------------------------3-1--------------------|

G|---------------------------------------------------------------------------|
D|-----------------------333-------------------------------------------------|
A|---------------------------3-3-3-3-3-3-3-3-1-0-----------------------------|
E|1-11-1-1-11-1-1-11-1-1-------------------------3-1-------------------------|

Pre-Chorus: PLay Twice

G|---------------- x2|--------------------------------------------------------|
D|---2-2-3-3-4-5-----|--------------------------------------------------------|
A|3-3----------------|---0-0-1-1-2-3-3-3-1-1-0-0------------------------------|
E|-------------------|1-1------------------------3-3--------------------------|

CHorus
G|-------------|Ending 1--------|Ending 2------------------------------------|
D|----3-----3-*|----------------|--------------------------------------------|
A|--5-----5---*|----------------|--------------------------------------------|
E|6-----5------|3--5-3--1--3-5--|-3333333333333333---------------------------|

G|----------------------------------x2|--------------------------------------|
D|-3-3-3-3-3-3-3-3--------------------|--------------------------------------|
A|-----------------1----1-11----------|--------------------------------------|
E|--------------------------1----1-11-|-4-----4-----1------------------------|

Repeat All (not including intro) until:

Pre-Second solo

G|----------------------------------------------------------------------------|1x
D|---------2h3-3-2h3-3-3-3-2h3-3-2h3-3-3-3------------------------------------|
A|----------------------------------------------------------------------------|
E|-4----4-----------------------------------4-----4---------------------------|

G|----------------------------------------------------------------------------|2x
D|-3-----3-----3-3-----3------------------------------------------------------|
A|---5-3-----5-----5-3----5-3-------------------------------------------------|
E|----------------------------4----4------------------------------------------|

Pre Chorus Part during second solo until end:

G|---------------------------------------------------------------------------|
D|---------------------------------------------------------------------------|
A|---------------------------------------------------------------------------|
E|-4----4----1---------------------------------------------------------------|

            
            
Suggest correction
Creating personal tab
Creating personal tab
You can edit any tab online and save it as your Personal.

You can edit, replace or remove any tab part or add personal notes – all changes will be seen only by you.

Personal tabs can be accessed anytime from any device, even offline.
Learn more »
Give kudos to tab author, rate the tab!
1 2 3 4 5
comments
print report bad tab
1 comment total.
0 reply
victoriaroskams 10 Jan 12, 2015 04:49 AM

I think the final part should be not quite the same as the pre-chorus, but like this instead:

G|---------------- x2|--------------------------------------------------------|
D|----------------|--------------------------------------------------------|--------------------------------------------------------|
A|----3-3-4-4-5-6--------|---0-0-1-1-2-3-3-3-1-1-0-0------------------------------|
E|-4-4-----------------|1-1------------------------3-3--------------------------|

but otherwise great, thanks!

guest
You may want to rate the tab now too:
select rating
Wanna post a correction for this tab? Suggest correction