Oops, an error
Loading. Please wait.

Listen bass

version 3
version 3

Whole song

1,504 views 1 this week
1 commentread comment
1 2 3 4 5
x 3
add to favorites
×
Save as Personal and add changes to this tab that will be seen only by you. Learn more ›
×
You can save this tab as Personal to edit and correct it or add notes. All changes will be seen only by you. Learn more »
launch autoscroll
font size
0
reset
guitar tuner
edit
Autoscroll
slow
fast
+/-
esc
set tempo
stop
Intro
G------------------------------------------------12-12-12----------12-12-12-|
D---------------------------------------------------------------------------|
A--------3-3-(3)/5-5-(5)/7-7-(7)/8-8-(8)/10-10-10----------10-10-10---------|
E-0-5-0---------------------------------------------------------------------|

Main Riff
G------------------------------------------12-12-12----------12-12-12-|
D---------------------------------------------------------------------|
A-3-3-(3)/5-5-(5)/7-7-(7)/8-8-(8)/10-10-10----------10-10-10----------|
E---------------------------------------------------------------------|

Riff 2 (always place twice followed immediatly by riff 3)
G------------------------------------------------------|
D-3-3-3-3-3-3-3-3-3-3-3-3-3----------------------------|
A---------------------------3-3-3-3-3-3-3-3-3-3-3-3-3--|
E------------------------------------------------------|

Riff 3
G------------------------------------------|
D-5-5-5-5-5-5-5-5-5-5-5-5-5-5-5-5-5-5-5-5--|
A------------------------------------------|
E------------------------------------------|

Ending
G-----------------------------------------------------|
D-----------------------------------------------------|
A-3-3-3-3-3-3-3-3-3-3-2-------------------------------|
E------------------------3-3-3-3-3-3-3-3-3-3-3-3-3-3--|

Main Riff  (5x)
Riff 2     (2x)
Riff 3     (1x)
Riff 2     (2x)
Riff 3     (1x)
Main Riff  (2x)
Riff 2     (2x)
Riff 3     (1x)
Riff 2     (2x)
Riff 3     (1x)
Main Riff  (2x)
Ending


yeah yeah, 3rd version, but its the right one
Suggest correction
Creating personal tab
Creating personal tab
You can edit any tab online and save it as your Personal.

You can edit, replace or remove any tab part or add personal notes – all changes will be seen only by you.

Personal tabs can be accessed anytime from any device, even offline.
Learn more »
Give kudos to tab author, rate the tab!
1 2 3 4 5
comments
print report bad tab
1 comment total.
0 reply
lashistoriade2gamers 242 Aug 08, 2016 03:04 PM

Riff 3 is wrong, it should be like this:

G------------------------------------------|
D-5-5-5-5-5-5-5-5-5-5-5-5-5-5-5-5-5-5-5-5--|
A------------------------------------------|
E------------------------------------------|

guest
You may want to rate the tab now too:
select rating
Wanna post a correction for this tab? Suggest correction