Oops, an error
Loading. Please wait.
We have an official London Calling tab made by UG professional guitarists. Check out the tab »
×
21,227 views 93 this week
1 commentread comment
1 2 3 4 5
x 11
add to favorites
launch autoscroll
font size
0
reset
guitar tuner
Autoscroll
slow
fast
+/-
esc
set tempo
stop
Title:  London calling
Artist: The Clash
Album:  London calling
Instrument: 4 String Bass
Tuning: Standard (E A D G)

[Intro]
G|----------------|----------------|----------------|----------------||
D|----------------|----------------|10--------------|----------------||
A|------------2-/-|7-----7-10-7-10-|------------2-/-|7-----7-10-7-10-||
E|----------------|----------------|----------------|----------------||
                   Em               C                Em
G|----------------|----------------|----------------|----------------||
D|----------------|----------------|10--------------|----------------||
A|------------2-/-|7-----7-10-7-10-|------------2-/-|7-----7-10-7-10-||
E|8---------------|----------------|----------------|----------------||
  C                Em               C                Em
G|----------------||
D|----------------||
A|------------2---||
E|8---------------||
  C

[Verse]
G|----------------|----------------|----------------|----------------||
D|2---------------|3---------------|----------------|----------------||
A|--------2-3-2-3-|--------2-3-2-3-|--------2-3-2-3-|------------2---||
E|----------------|----------------|3---------------|3---------------||
  Em               F                G                G             x4

[Chorus]
G|----------------|----------------||
D|2---2---2---2-4-|5---5---5---5-4-||
A|----------------|----------------||
E|----------------|----------------||
  Em               G             D   
                                 x3
G|----------------|----------------|----------------||
D|2---2---2---2---|----------------|----------------||
A|----------------|5---4---2---0---|5---4---2---0---||
E|----------------|----------------|----------------||
  Em               D

[Verse]
G|----------------|----------------|----------------|----------------||
D|2---------------|3---------------|----------------|----------------||
A|--------2-3-2-3-|--------2-3-2-3-|--------2-3-2-3-|------------2---||
E|----------------|----------------|3---------------|3---------------||
  Em               F                G                G             x4

[Chorus]
G|----------------|----------------||
D|2---2---2---2-4-|5---5---5---5-4-||
A|----------------|----------------||
E|----------------|----------------||
  Em               G             D   
                                 x3
G|----------------|----------------|----------------||
D|2---2---2---2---|----------------|----------------||
A|----------------|5---4---2---0---|5---4---2---0---||
E|----------------|----------------|----------------||
  Em               D

[Intro] x2(interlude)
G|----------------|----------------|----------------|----------------||
D|----------------|----------------|10--------------|----------------||
A|------------2-/-|7-----7-10-7-10-|------------2-/-|7-----7-10-7-10-||
E|----------------|----------------|----------------|----------------||
                   Em               C                Em
G|----------------|----------------|----------------|----------------||
D|----------------|----------------|10--------------|----------------||
A|------------2-/-|7-----7-10-7-10-|------------2-/-|7-----7-10-7-10-||
E|8---------------|----------------|----------------|----------------||
  C                Em               C                Em
G|----------------||
D|----------------||
A|------------2---||
E|8---------------||
  C

[Verse]
G|----------------|----------------|----------------|----------------||
D|2---------------|3---------------|----------------|----------------||
A|--------2-3-2-3-|--------2-3-2-3-|--------2-3-2-3-|------------2---||
E|----------------|----------------|3---------------|3---------------||
  Em               F                G                G             x4

[End]
G|----------------||
D|2---------------||
A|----------------||
E|----------------||
  Em
Suggest correction
comments
print report bad tab
1 comment total.
0 reply
emericanman 73 Dec 19, 2004 07:00 PM

perfect tab man!

guest
Wanna post a correction for this tab? Suggest correction