Oops, an error
Loading. Please wait.
We have an official London Calling tab made by UG professional guitarists. Check out the tab »
×
3,939 views 1 this week
no commentswrite comment
1 2 3 4 5
3 more votes to show rating
add to favorites
launch autoscroll
font size
0
reset
guitar tuner
Autoscroll
slow
fast
+/-
esc
set tempo
stop
Author
Difficulty
advanced
this is not the origional tabbing, but the notes are the same.

key:

   |
  *|
  *|= repeat
   |


[Intro]
there is a 4 bar rest before the bass comes in.

G|--------0----0---5-------0----0------|
D|---2------2-----------2----2--------*|
A|-2------------------2------------3--*|
E|-------------------------------------|

[Verse]
                                                          x4
G|------------------------------------------------------------|
D|-----2--2------------3---3---------------------------------*|
A|---2----------2-0-2-----------2-0-2----------2-0-2---------*|
E|-------------------------------------3---3-----------3--3---|

[Chorus]

G|-----------------------------------------------------------|
D|-------2-----4--5----0--2----4--5----0--2------4--5--0--2--|
A|---2-------------------------------------------------------|
E|-----------------------------------------------------------|

G|-----------------------------|
D|-----------------------------|
A|---5--4--3--2---5--4--3--2---|   
E|-----------------------------|

[Verse]
                                                          x4
G|------------------------------------------------------------|
D|-----2--2------------3---3---------------------------------*|
A|---2----------2-0-2-----------2-0-2----------2-0-2---------*|
E|-------------------------------------3---3-----------3--3---|

[Chorus]

G|-----------------------------------------------------------|
D|-------2-----4--5----0--2----4--5----0--2------4--5--0--2--|
A|---2-------------------------------------------------------|
E|-----------------------------------------------------------|

G|-----------------------------|
D|-----------------------------|
A|---5--4--3--2---5--4--3--2---|   
E|-----------------------------|

[Intro] x2

G|--------0----0---5-------0----0------|
D|---2------2-----------2----2--------*|
A|-2------------------2------------3--*|
E|-------------------------------------|

[Solo]
                                                          x2
G|------------------------------------------------------------|
D|-----2--2------------3---3---------------------------------*|
A|---2----------2-0-2-----------2-0-2----------2-0-2---------*|
E|-------------------------------------3---3-----------3--3---|

[Chorus]

G|-----------------------------------------------------------|
D|-------2-----4--5----0--2----4--5----0--2------4--5--0--2--|
A|---2-------------------------------------------------------|
E|-----------------------------------------------------------|

G|-----------------------------|
D|-----------------------------|
A|---5--4--3--2---5--4--3--2---|   
E|-----------------------------|


thats it!!

please rate / coment!!!
Suggest correction
Give kudos to tab author, rate the tab!
1 2 3 4 5
comments
print report bad tab
guest
You may want to rate the tab now too:
select rating
Wanna post a correction for this tab? Suggest correction