Oops, an error
Loading. Please wait.
We have an official London Calling tab made by UG professional guitarists. Check out the tab »
×
589 views 33 this week
no commentswrite comment
1 2 3 4 5
3 more votes to show rating
add to favorites
launch autoscroll
font size
0
reset
guitar tuner
×
Best way to learn
"London Calling"
Autoscroll
slow
fast
+/-
esc
set tempo
stop
Band: The Clash
Song: London Calling
Album: London Calling (1979)
Tuning: Standard E A D G

 | Intro                            2x |
G|-------------------------------------|
D|--------------10~--------------------|
A|---2~/7~-7107-------2~/7~--7107-3~---|
E|-------------------------------------|

 | Verse                            4x |
G|-------------------------------------|
D|-------------------------------------|
A|---2/77-------88---------------------|
E|---------7567-----7567-33--7567-33---|

 | Chorus                              |
G|-------------------------------------|
D|-------------------------------------|
A|---2/77777-9-10-10-10----------------|
E|---------------9--9--10--------------|
 |                                  2x |
G|-------------------------------------|
D|-------------------------------------|
A|---77777-9-10-10-10------------------|
E|---------------9--9--10--------------|
 |                                     |
G|-------------------------------------|
D|-------------------------------------|
A|---77777-9---------------------------|
E|-----------10-9-8-7--1-0-9-8-7-------|

 | Verse                            4x |
G|-------------------------------------|
D|-------------------------------------|
A|---2/77-------88---------------------|
E|---------7567-----7567-33--7567-33---|

 | Chorus                              |
G|-------------------------------------|
D|-------------------------------------|
A|---2/77777-9-10-10-10----------------|
E|---------------9--9--10--------------|
 |                                  2x |
G|-------------------------------------|
D|-------------------------------------|
A|---77777-9-10-10-10------------------|
E|---------------9--9--10--------------|
 |                                     |
G|-------------------------------------|
D|-------------------------------------|
A|---77777-9---------------------------|
E|-----------10-9-8-7--1-0-9-8-7-------|

 | Intro                            2x |
G|-------------------------------------|
D|--------------10~--------------------|
A|---2~/7~-7107-------2~/7~--7107-3~---|
E|-------------------------------------|

 | Solo                             2x |
G|-------------------------------------|
D|-------------------------------------|
A|---2/77-------88---------------------|
E|---------7567-----7567-33--7567-33---|

 | Chorus                              |
G|-------------------------------------|
D|-------------------------------------|
A|---2/77777-9-10-10-10----------------|
E|---------------9--9--10--------------|
 |                                  2x |
G|-------------------------------------|
D|-------------------------------------|
A|---77777-9-10-10-10------------------|
E|---------------9--9--10--------------|
 |                                     |
G|-------------------------------------|
D|-------------------------------------|
A|---77777-9---------------------------|
E|-----------10-9-8-7--1-0-9-8-7-------|

 | Outro                            4x |
G|-------------------------------------|
D|--------------10~--------------------|
A|---2~/7~-7107-------2~/7~--7107-3~---|
E|-------------------------------------|
 |                                     |
G|-------------------------------------|
D|-------------------------------------|
A|---3-3-0-0-0-2/7~--------------------|
E|-------------------------------------|

Order: Intro - Verse - Chorus - Verse -
 Chorus - Verse - Chorus - Break - Outro

Okay.. that's it! I think the tab's right. I'm not
exactly sure about the chorus but I think It should
be right, too. The Bass for London Calling is a bit
tricky because some parts are played really quick.
Just practice and enjoy Paul Simonon & The Clash...
Suggest correction
Give kudos to tab author, rate the tab!
1 2 3 4 5
comments
print report bad tab
guest
You may want to rate the tab now too:
select rating
Wanna post a correction for this tab? Suggest correction