Oops, an error
Loading. Please wait.
We have an official London Calling tab made by UG professional guitarists. Check out the tab »
×
5,271 views 1 this week
no commentswrite comment
1 2 3 4 5
1 last vote to show rating
add to favorites
×
Save as Personal and add changes to this tab that will be seen only by you. Learn more ›
×
You can save this tab as Personal to edit and correct it or add notes. All changes will be seen only by you. Learn more »
launch autoscroll
font size
0
reset
how to read this tab
guitar tuner
edit
Autoscroll
slow
fast
+/-
esc
set tempo
stop
Author
Difficulty
intro rythm 1. guitar 1
e--7---7--7--7------8---8--8--8-----7-7-7-7----8--8- 8--8-------------------|
b--8-  8--8--8------8---8--8--8-----8-8-8-8----8--8- 8--8-------------------|
g--9---9--9--9------9---9--9--9-----9-9-9-9----9--9- 9- 9-------------------|
d--9---9--9--9------10--10-10-10----9-9-9-9----10-10-10 10------------------|
a---------------------------------------------------------------------------|
e---------------------------------------------------------------------------|
guitar 2 go along with rhythm 1.
e---------------------------------------------------------------------------|
b---------------------------------------------------------------------------|
g--12-----12-----12----12----12-------12---12--12----12-------12----12------|
d---------------------------------------------------------------------------|
a---------------------------------------------------------------------------|
e---------------------------------------------------------------------------|


 london calling to the faraway....
rhythm 2
e--7-7-7-7---8-8-8-8---7-7-7-7---7-7--7--7----------------------------------|
b--8-8-8-8---8-8-8-8---8-8-8-8---8-8--8--8----------------------------------|
g--9-9-9-9---9-9-9-9---9-9-9-9---7-7--7--7----------------------------------|
d--9-9-9-9--10101010---9-9-9-9---9-9--9--9----------------------------------|
a---------------------------------------------------------------------------|
e---------------------------------------------------------------------------|

the ice age is coming...
rythym 3 with rythym 2 in back (slide it!)
e--/12----------------------------------------------------------------------|
b--/12--------------12---10-------------------------------------------------|
g--/12--------------12---11-------------------------------------------------|
d--/14--------------12---12-------------------------------------------------|
a---------------------------------------------------------------------------|
e---------------------------------------------------------------------------|

and i....

e---------------------------------------------------------------------------|
b---------------------------------------------------------------------------|
g---------------------------------------------------------------------------|
d---12----------------------------------------------------------------------|
a---------------------------------------------------------------------------|
e---------------------------------------------------------------------------|


london calling to the imitation zone......

e---------------------------------------------------------------------------|
b-----------------------------------------------12--/12---------------------|
g------------12----------(12)-------------------12--/12---------------------|
d-----------------------------------------------12--/12---------------------|
a----/14--------------------------------------------------------------------|
e---------------------------------------------------------------------------|

solo


guitar 1

e----------------------------------------------------------------------------|
b----------------------------------------------------------------------------|
g----------------------------------------------------------------------------|
d----7/14----b5--------------------------------------------------------------|
a----------------------------------------------------------------------------|
e----------------------------------------------------------------------------|

guitar 2

e-----------------------------------------5--4------------------------------|
b-------------------------------0-------------------------------------------|
g---------------------4----2--------2---------------------------------------|
d---------------------------------------------------------------------------|
a---------------------------------------------------------------------------|
e---------------------------------------------------------------------------|

guitar 2

e-------------------b15----15--15-------12--15--12--------------------------|
b-----------b15--------------------------------------b15----9-9-------------|
g-----b14-------------------------------------------------------------------|
d---------------------------------------------------------------------------|
a---------------------------------------------------------------------------|
e---------------------------------------------------------------------------|

e-------------12-12-12-12-12------------------------------------------------|
b-12----------12-12-12-12-12------------------------------------------------|
g-----b14--------------------b14--------------------------------------------|
d---------------------------------------------------------------------------|
a---------------------------------------------------------------------------|
e---------------------------------------------------------------------------|

well some of it was true...


e---------------------------------------------------------------------------|
b---------------------------------------------------------------------------|
g---------------------------------------------------------------------------|
d--10---9---10--9-----------------------------------------------------------|
a-------------------10\-----------------------------------------------------|
e---------------------------------------------------------------------------|

  give me a smile....

e----------------------12-12-12---------------------------------------------|
b----------------------12-12-12---------------------------------------------|
g----------------------12-12-12---------------------------------------------|
d---10----9---10---12-------------------------------------------------------|
a---------------------------------------------------------------------------|
e---------------------------------------------------------------------------|

i never felt so much a like...

feed back while switching the knob. thats it enjoy hit me up on myspace.com/clashfan1
or klashonlyone@hotmail.com

            
            
Suggest correction
Creating personal tab
Creating personal tab
You can edit any tab online and save it as your Personal.

You can edit, replace or remove any tab part or add personal notes – all changes will be seen only by you.

Personal tabs can be accessed anytime from any device, even offline.
Learn more »
Give kudos to tab author, rate the tab!
1 2 3 4 5
comments
print report bad tab
guest
You may want to rate the tab now too:
select rating
Wanna post a correction for this tab? Suggest correction