Oops, an error
Loading. Please wait.
We have an official London Calling tab made by UG professional guitarists. Check out the tab »
×
604 views 12 this week
no commentswrite comment
1 2 3 4 5
2 more votes to show rating
add to favorites
×
Save as Personal and add changes to this tab that will be seen only by you. Learn more ›
×
You can save this tab as Personal to edit and correct it or add notes. All changes will be seen only by you. Learn more »
launch autoscroll
font size
0
reset
guitar tuner
edit
Autoscroll
slow
fast
+/-
esc
set tempo
stop
Author
Difficulty
-------------------------------------------------------------------------------
                             LONDON CALLING - The Clash
-------------------------------------------------------------------------------
Tabbed by: Emilym80
E-mail: Emilym80@hotmail.com

Tuning:

I decided to do this one because I can't find a tab that's 100 percent
accurate. This is really simple- email me with questions/comments etc.

[Intro] - Riff 1
G|------------------------------------|
D|-------------10---------------------|
A|-2/7-10-7-10----2/7-10-7-10---------|
E|----------------------------8-------| x2

[Verse] - Riff 2
G|---------------------------------------|
D|---2---------3-------------------------|
A|-2---2-0h2h3---2-0h1h2-----2-0h1h2-----|
E|-------------------------3---------3---| x4

[Chorus A] - Riff 3
G|------------------------------------|
D|---2--2-2-4-5--5-5------------------|
A|-2------------------5---------------|
E|------------------------------------| x4
           *stop here on 4th repeat, move to riff 4
[Chorus B] - Riff 4
G|------------------------------------|
D|------------------------------------|
A|-5-4-3-2----------------------------|
E|------------------------------------| x2 

[Verse] - Riff 2
G|---------------------------------------|
D|---2---------3-------------------------|
A|-2---2-0h2h3---2-0h1h2-----2-0h1h2-----|
E|-------------------------3---------3---| x4

[Chorus A] - Riff 3
G|------------------------------------|
D|---2--2-2-4-5--5-5------------------|
A|-2------------------5---------------|
E|------------------------------------| x4
           *stop here on 4th repeat, move to riff 4
[Chorus B] - Riff 4
G|------------------------------------|
D|------------------------------------|
A|-5-4-3-2----------------------------|
E|------------------------------------| x2 

[Verse] - Riff 2
G|---------------------------------------|
D|---2---------3-------------------------|
A|-2---2-0h2h3---2-0h1h2-----2-0h1h2-----|
E|-------------------------3---------3---| x4

[Chorus A] - Riff 3
G|------------------------------------|
D|---2--2-2-4-5--5-5------------------|
A|-2------------------5---------------|
E|------------------------------------| x4
           *stop here on 4th repeat, move to riff 4
[Chorus B] - Riff 4
G|------------------------------------|
D|------------------------------------|
A|-5-4-3-2----------------------------|
E|------------------------------------| x2 

Play E 2nd fret on d string then...

[Intro] - Riff 1
G|------------------------------------|
D|-------------10---------------------|
A|-2/7-10-7-10----2/7-10-7-10---------|
E|----------------------------8-------| x4

Play another E and hold
"I've never felt so much alike..."

Song structure-
Riff 1 x2
Riff 2 x4
Riff 3 x4 (see *)
Riff 4 x2
Riff 2 x4
Riff 3 x4 (see *)
Riff 4 x2
Riff 2 x4
Riff 3 x4 (see *)
Riff 4 x2
Play E 2nd fret on d string then...
Riff 1 x4
Play another E and hold
"I've never felt so much alike..."
And voila.

Key- h= hammer on
     /= slide (from fret to fret while holding note)

            
            
Suggest correction
Creating personal tab
Creating personal tab
You can edit any tab online and save it as your Personal.

You can edit, replace or remove any tab part or add personal notes – all changes will be seen only by you.

Personal tabs can be accessed anytime from any device, even offline.
Learn more »
Give kudos to tab author, rate the tab!
1 2 3 4 5
comments
print report bad tab
guest
You may want to rate the tab now too:
select rating
Wanna post a correction for this tab? Suggest correction