Oops, an error
Loading. Please wait.

Lost In The Supermarket tab

version 1
version 1

Whole song

Interactive

148 views 9 this week
no commentswrite comment
1 2 3 4 5
3 more votes to show rating
add to favorites
×
Save as Personal and add changes to this tab that will be seen only by you. Learn more ›
×
You can save this tab as Personal to edit and correct it or add notes. All changes will be seen only by you. Learn more »
launch autoscroll
font size
0
reset
how to read this tab
guitar tuner
edit
Autoscroll
slow
fast
+/-
esc
set tempo
stop
Artist: The Clash 
Song: Lost in the supermarket (1979)
Tab based on the youtube cover by Privettricker

tuning: open E

[Intro] (x2)
E |-0--0---0---0--0--0--0---0--|
B |-0--0---0---0--0--0--0---0--|
G#|-3--3---1---0--1--0--1---3--|
E |-4--4---2---0--2--0--2---4--|
B |-4--4---2---0--2--0--2---4--|
E |-0--0---0---0--0--0--0---0--|

E |-0--0---0---0--0--0--0------|
B |-0--0---0---0--0--0--0------|
G#|-3--3---1---0--1--0--0------|
E |-4--4---2---0--2--0--0------|
B |-4--4---2---0--2--0--0------|
E |-0--0---0---0--0--0--0------|

E |-0--0---0---0--0--0--0---0--|
B |-0--0---0---0--0--0--0---0--|
G#|-3--3---1---0--1--0--1---3--|
E |-4--4---2---0--2--0--2---4--|
B |-4--4---2---0--2--0--2---4--|
E |-0--0---0---0--0--0--0---0--|

E |-0--0---0--0--0--|
B |-0--0---0--0--0--|
G#|-3--3---1--0--1--|
E |-4--4---2--0--2--|
B |-4--4---2--0--2--|
E |-0--0---0--0--0--|

[Chorus]
E |-0--0---0---0--0--0--0---0--|
B |-0--0---0---0--0--0--0---0--|
G#|-3--3---1---0--1--0--1---3--|
E |-4--4---2---0--2--0--2---4--|
B |-4--4---2---0--2--0--2---4--|
E |-0--0---0---0--0--0--0---0--|

I'm all lost in the supermarket

E |-0--0---0---0--0--0--0------|
B |-0--0---0---0--0--0--0------|
G#|-3--3---1---0--1--0--0------|
E |-4--4---2---0--2--0--0------|
B |-4--4---2---0--2--0--0------|
E |-0--0---0---0--0--0--0------|

I can no longer shop happily

E |-0--0---0---0--0--0--0---0--|
B |-0--0---0---0--0--0--0---0--|
G#|-3--3---1---0--1--0--1---3--|
E |-4--4---2---0--2--0--2---4--|
B |-4--4---2---0--2--0--2---4--|
E |-0--0---0---0--0--0--0---0--|

I came in here for that special offer

E |-0--0---0--0--0--|
B |-0--0---0--0--0--|
G#|-3--3---1--0--1--|
E |-4--4---2--0--2--|
B |-4--4---2--0--2--|
E |-0--0---0--0--0--|

A guaranteed personality

[Verse]
(listen for the exact number of strokes)
E |-0--0---7--7--7--7---x---5-5-5--5-5--0-0--x--x--x--x---7-7--5--5--5--5--5---5--5--0-0|
B |-0--0---7--7--7--7---9---5-5-5--5-5--0-0--9--9--9--9---7-7--5--5--5--5--5---5--5--0-0|
G#|-0--0---7--7--7--7---8---5-5-5--5-5--0-0--8--8--8--8---7-7--5--5--5--5--5---5--5--0-0|
E |-0--0---7--7--7--7---9---5-5-5--5-5--0-0--9--9--9--9---7-7--5--5--5--5--5---5--5--0-0|
B |-0--0---7--7--7--7---x---5-5-5--5-5--0-0--x--x--x--x---7-7--5--5--5--5--5---5--5--0-0|
E |-0--0---7--7--7--7---x---5-5-5--5-5--0-0--x--x--x--x---7-7--5--5--5--5--5---5--5--0-0|

E |-0--0---7--7--7--7---x---5-5-5--5-5--0-0--x--x--x--x---7-7--5--5--5--5--5---5--5--0-0|
B |-0--0---7--7--7--7---9---5-5-5--5-5--0-0--9--9--9--9---7-7--5--5--5--5--5---5--5--0-0|
G#|-0--0---7--7--7--7---8---5-5-5--5-5--0-0--8--8--8--8---7-7--5--5--5--5--5---5--5--0-0|
E |-0--0---7--7--7--7---9---5-5-5--5-5--0-0--9--9--9--9---7-7--5--5--5--5--5---5--5--0-0|
B |-0--0---7--7--7--7---x---5-5-5--5-5--0-0--x--x--x--x---7-7--5--5--5--5--5---5--5--0-0|
E |-0--0---7--7--7--7---x---5-5-5--5-5--0-0--x--x--x--x---7-7--5--5--5--5--5---5--5--0-0|

[Chorus]
E |-0--0---0---0--0--0--0---0--|
B |-0--0---0---0--0--0--0---0--|
G#|-3--3---1---0--1--0--1---3--|
E |-4--4---2---0--2--0--2---4--|
B |-4--4---2---0--2--0--2---4--|
E |-0--0---0---0--0--0--0---0--|

I'm all lost in the supermarket

E |-0--0---0---0--0--0--0------|
B |-0--0---0---0--0--0--0------|
G#|-3--3---1---0--1--0--0------|
E |-4--4---2---0--2--0--0------|
B |-4--4---2---0--2--0--0------|
E |-0--0---0---0--0--0--0------|

I can no longer shop happily

E |-0--0---0---0--0--0--0---0--|
B |-0--0---0---0--0--0--0---0--|
G#|-3--3---1---0--1--0--1---3--|
E |-4--4---2---0--2--0--2---4--|
B |-4--4---2---0--2--0--2---4--|
E |-0--0---0---0--0--0--0---0--|

I came in here for that special offer

E |-0--0---0--0--0--|
B |-0--0---0--0--0--|
G#|-3--3---1--0--1--|
E |-4--4---2--0--2--|
B |-4--4---2--0--2--|
E |-0--0---0--0--0--|

A guaranteed personality

[Verse 2]
(listen for the exact number of strokes)
E |-0--0---7--7--7--7---x---5-5-5--5-5--0-0--x--x--x--x---7-7--5--5--5--5--5---5--5--0-0|
B |-0--0---7--7--7--7---9---5-5-5--5-5--0-0--9--9--9--9---7-7--5--5--5--5--5---5--5--0-0|
G#|-0--0---7--7--7--7---8---5-5-5--5-5--0-0--8--8--8--8---7-7--5--5--5--5--5---5--5--0-0|
E |-0--0---7--7--7--7---9---5-5-5--5-5--0-0--9--9--9--9---7-7--5--5--5--5--5---5--5--0-0|
B |-0--0---7--7--7--7---x---5-5-5--5-5--0-0--x--x--x--x---7-7--5--5--5--5--5---5--5--0-0|
E |-0--0---7--7--7--7---x---5-5-5--5-5--0-0--x--x--x--x---7-7--5--5--5--5--5---5--5--0-0|

E |-0--0---7--7--7--7---x---5-5-5--5-5--0-0--x--x--x--x---7-7--5--5--5--5--5---5--5--0-0|
B |-0--0---7--7--7--7---9---5-5-5--5-5--0-0--9--9--9--9---7-7--5--5--5--5--5---5--5--0-0|
G#|-0--0---7--7--7--7---8---5-5-5--5-5--0-0--8--8--8--8---7-7--5--5--5--5--5---5--5--0-0|
E |-0--0---7--7--7--7---9---5-5-5--5-5--0-0--9--9--9--9---7-7--5--5--5--5--5---5--5--0-0|
B |-0--0---7--7--7--7---x---5-5-5--5-5--0-0--x--x--x--x---7-7--5--5--5--5--5---5--5--0-0|
E |-0--0---7--7--7--7---x---5-5-5--5-5--0-0--x--x--x--x---7-7--5--5--5--5--5---5--5--0-0|

[Chorus]
E |-0--0---0---0--0--0--0---0--|
B |-0--0---0---0--0--0--0---0--|
G#|-3--3---1---0--1--0--1---3--|
E |-4--4---2---0--2--0--2---4--|
B |-4--4---2---0--2--0--2---4--|
E |-0--0---0---0--0--0--0---0--|

I'm all lost in the supermarket

E |-0--0---0---0--0--0--0------|
B |-0--0---0---0--0--0--0------|
G#|-3--3---1---0--1--0--0------|
E |-4--4---2---0--2--0--0------|
B |-4--4---2---0--2--0--0------|
E |-0--0---0---0--0--0--0------|

I can no longer shop happily

E |-0--0---0---0--0--0--0---0--|
B |-0--0---0---0--0--0--0---0--|
G#|-3--3---1---0--1--0--1---3--|
E |-4--4---2---0--2--0--2---4--|
B |-4--4---2---0--2--0--2---4--|
E |-0--0---0---0--0--0--0---0--|

I came in here for that special offer

E |-0--0---0--0--0--|
B |-0--0---0--0--0--|
G#|-3--3---1--0--1--|
E |-4--4---2--0--2--|
B |-4--4---2--0--2--|
E |-0--0---0--0--0--|

A guaranteed personality

[Solo]
E |-0--0---0---0--0--0--0---0--|
B |-0--0---0---0--0--0--0---0--|
G#|-3--3---1---0--1--0--1---3--|
E |-4--4---2---0--2--0--2---4--|
B |-4--4---2---0--2--0--2---4--|
E |-0--0---0---0--0--0--0---0--|

E |-0--0---0---0--0--0--0------|
B |-0--0---0---0--0--0--0------|
G#|-3--3---1---0--1--0--0------|
E |-4--4---2---0--2--0--0------|
B |-4--4---2---0--2--0--0------|
E |-0--0---0---0--0--0--0------|

E |-0--0---0---0--0--0--0---0--|
B |-0--0---0---0--0--0--0---0--|
G#|-3--3---1---0--1--0--1---3--|
E |-4--4---2---0--2--0--2---4--|
B |-4--4---2---0--2--0--2---4--|
E |-0--0---0---0--0--0--0---0--|

E |-0--0---0--0--0--|
B |-0--0---0--0--0--|
G#|-3--3---1--0--1--|
E |-4--4---2--0--2--|
B |-4--4---2--0--2--|
E |-0--0---0--0--0--|

[Chorus]
E |-0--0---0---0--0--0--0---0--|
B |-0--0---0---0--0--0--0---0--|
G#|-3--3---1---0--1--0--1---3--|
E |-4--4---2---0--2--0--2---4--|
B |-4--4---2---0--2--0--2---4--|
E |-0--0---0---0--0--0--0---0--|

I'm all lost in the supermarket

E |-0--0---0---0--0--0--0------|
B |-0--0---0---0--0--0--0------|
G#|-3--3---1---0--1--0--0------|
E |-4--4---2---0--2--0--0------|
B |-4--4---2---0--2--0--0------|
E |-0--0---0---0--0--0--0------|

I can no longer shop happily

E |-0--0---0---0--0--0--0---0--|
B |-0--0---0---0--0--0--0---0--|
G#|-3--3---1---0--1--0--1---3--|
E |-4--4---2---0--2--0--2---4--|
B |-4--4---2---0--2--0--2---4--|
E |-0--0---0---0--0--0--0---0--|

I came in here for that special offer

E |-0--0---0--0--0--|
B |-0--0---0--0--0--|
G#|-3--3---1--0--1--|
E |-4--4---2--0--2--|
B |-4--4---2--0--2--|
E |-0--0---0--0--0--|

A guaranteed personality



************************************

| x  Dead note
|    
| #  

************************************

            
            
Suggest correction
Creating personal tab
Creating personal tab
You can edit any tab online and save it as your Personal.

You can edit, replace or remove any tab part or add personal notes – all changes will be seen only by you.

Personal tabs can be accessed anytime from any device, even offline.
Learn more »
Give kudos to tab author, rate the tab!
1 2 3 4 5
comments
print report bad tab
guest
You may want to rate the tab now too:
select rating
Wanna post a correction for this tab? Suggest correction