Oops, an error
Loading. Please wait.

Lost In The Supermarket Bass Tab

version 2
version 2

Whole song

Interactive

12,434 views 30 this week
no commentswrite comment
1 2 3 4 5
excellent!
x 4
add to favorites
launch autoscroll
font size
0
reset
guitar tuner
Tab Pro tools
  • play this tab
  • loop segment
  • change instrument
  • show fretboard
  • metronome
Autoscroll
slow
fast
+/-
esc
set tempo
stop
Contributor
8)Lost in the Supermarket
Intro
|--|----------------|----------------|----------------|
|9-|----------------|--------------9-|----------------|
|--|7---------------|----------------|4---------------|
|--|----------------|----------------|----------------|

|----------------|----------------|----------------|
|----------------|----------------|----------------|
|----------4-6-7-|----------------|--------------4-|
|----------------|5---------------|----------------|

|----------------|----------------|
|------------4-5-|6---------------|
|7---------------|----------------|
|----------------|----------------|


|----------------|----------------|----------------|
|----------------|----------------|----------------|
|7-777-777-777-77|7-777-777-7-7-6-|4-444-444-444-44|
|----------------|----------------|----------------|

|----------------|----------------|----------------|
|----------------|----------------|----------------|
|4-444-444-4-6-7-|----------------|--------------4-|
|----------------|5-555-555-555-55|5-555-555-5-5---|

|----------------|----------------|
|----------------|----------------|
|7-777-777-77----|----------------|
|------------2-3-|4---------------|

Chorus
|----------------|----------------|----------------|
|----------------|----------------|----------------|
|7-777-777-777-77|7-777-777-7-7-6-|4-444-444-444-44|
|----------------|----------------|----------------|

|----------------|----------------|----------------|
|----------------|----------------|----------------|
|4-444-444-4-6-7-|----------------|--------------4-|
|----------------|5-555-555-555-55|5-555-555-5-5---|

|----------------|----------------|
|------------4-5-|6---------------|
|7-777-777-77----|----------------|
|----------------|----------------|
Verse 1
| ----------------|----------------|----------------|
|*----------------|----------------|7-77--7-77------|
|*7---4---7-----5-|------4---------|----7-----------|
| ------7---------|7-7-------------|----------------|

|----------------|----------------|----------------|
|----------------|----------------|----------------|
|------7---------|4-4-----4-4-----|--------------4-|
|7-7-----------4-|------4-------4-|7-7---5---5-5---|
		1._______________ 2.______________
|----------------|---------------- |----------------|
|7-77--7-77------|----------------*|----------------|
|----7-----------|------7-------6-*|------7---------|
|----------------|7-7-------5-7--- |7-7-------------|

Play Chorus
Play Verse 2

then
|----------------|----------------|----------------|
|----------------|----------------|----------------|
|7-777-777-777-77|7-777-777-7-7-6-|4-444-444-444-44|
|----------------|----------------|----------------|

|----------------|----------------|----------------|
|----------------|----------------|----------------|
|4-444-444-4-6-7-|----------------|--------------4-|
|----------------|5-555-555-555-55|5-555-555-5-5---|

|----------------|----------------|
|----------------|----------------|
|7-777-777-77----|----------------|
|------------2-3-|4---------------|

| ----------------|----------------|----------------|
|*----------------|----------------|----------------|
|*7-777-777-777-77|7-777-777-7-7-6-|4-444-444-444-44|
| ----------------|----------------|----------------|
 It's not here...
|----------------|----------------|----------------|
|----------------|----------------|----------------|
|4-444-444-4-6-7-|----------------|--------------4-|
|----------------|5-555-555-555-55|5-555-555-5-5---|

|----------------|---------------- | (x3)
|------------4-5-|6---------------*|
|7-777-777-77----|----------------*|
|----------------|---------------- |

|----------------|----------------|----------------|
|----------------|----------------|----------------|
|7-777-777-777-77|7-777-777-7-7-6-|4-444-444-444-44|
|----------------|----------------|----------------|

|----------------|----------------|----------------|
|----------------|----------------|----------------|
|4-444-444-4-6-7-|----------------|--------------4-|
|----------------|5-555-555-555-55|5-555-555-5-5---|

|----------------|----------------|
|----------------|----------------|
|7-777-777-77----|----------------|
|------------2-3-|4---------------|

|----------------|----------------|----------------|
|----------------|----------------|----------------|
|7-777-777-777-77|7-777-777-7-7-6-|4-444-444-444-44|
|----------------|----------------|----------------|

|----------------|----------------|----------------|
|----------------|----------------|----------------|
|4-444-444-4-6-7-|----------------|--------------4-|
|----------------|5-555-555-555-55|5-555-555-5-5---|

|----------------|----------------|
|------------4-5-|6---------6-5-4-|
|7-777-777-77----|----------------|
|----------------|----------------|

|----------------|----------------|----------------|
|----------------|----------6-5-4-|----------------|
|7---------------|----------------|4---------------|
|----------------|----------------|----------------|

|----------------|----------------|----------------|
|----------6-5-4-|----------------|----------------|
|----------------|----------------|--------------4-|
|----------------|5---------------|----------------|

|----------------|----------------|
|------------4-5-|6---------------|
|7---------------|----------------|
|----------------|--------------5-|

|----------------|----------------|6-----6-------7-|
|----------------|----------------|----------------|
|7-7------7------|7-7-------------|--7-4-------5---|
|----9------9----|----9-----------|----------------|

|----8-----9-----|----------------|----------------|
|----------------|----------------|----------------|
|--6-----7-------|--------------4-|7---------------|
|--------------0-|5-----5-----5---|----------------|

|----------------|----------------|
|------------4-5-|6---------6-5-4-|
|7---------------|----------------|
|----------------|----------------|

|----------------|----------------|----------------|
|----------------|----------6-5-4-|----------------|
|7---------------|----------------|4---------------|
|----------------|----------------|----------------|

|----------------|----------------|----------------|
|----------------|----------------|----------------|
|----------4-6-7-|----------------|--------------4-|
|----------------|5---------------|----------------|

|----------------|----------------|
|------------4-5-|6---------------|
|7---------------|----------------|
|----------------|--------------7-|

End
| ------11-13----- |
|*----------------*| Repeat and fade
|*7-7-7-----------*|
| --------------7- |
comments
print report bad tab
I want to post or [tab]
guest
You may want to rate the tab now too:
select rating
Please do not post tabs as comments. Select "correction" instead!