Oops, an error
Loading. Please wait.

Lovers Rock Bass Tab

1,433 views 1 this week
no commentswrite comment
1 2 3 4 5
accurate
x 3
add to favorites
launch autoscroll
font size
0
reset
guitar tuner
Tab Pro tools
  • play this tab
  • loop segment
  • change instrument
  • show fretboard
  • metronome
×
Best way to learn
"Lovers Rock"
Autoscroll
slow
fast
+/-
esc
set tempo
stop
Contributor
15/10/2009                  -( cLifFd!v3r )-

Artist;  The Clash
Song;    Lover's Rock
Bassist; Paul Simonon
Album;   London Calling


(Solo x2)       (0.00)
G]------------------------------------]
D]------------------------------------]
A]-----------------55--5--5h7\5\2~----]
E]33--3--3h55--5--5-------------------]


(Verse Pt. 1 x2)(0.15)
G]------------------------------------]
D]------------------------------------]
A]-----------------5~-------7\5\2~----]
E]33--3--3h55--5--5-------------------]


(Verse Pt. 2)   (0.30)
G]--------------------------------------]
D]5-55555-7-77777-----------------------]
A]-------7\------9\5-55555-3-33333------]
E]------------------------7\------5\----]

G]--------------------------------------]
D]5-55555-7-77777-----------------------]
A]-------7\------9\5~------3~-----------]
E]--------------------------------------]

(Verse Pt. 1 x2)(0.45)
(Verse Pt. 2)   (1.01)
(Solo x2)       (1.16)
(Verse Pt. 1 x2)(1.32)
(Verse Pt. 2)   (1.42)


There Are Many Parts To The Outro, This First Riff Played Once, The Second
Riff Played Five Times, Them Paul Just Starts To Play Random Shit, Which I Will Include 
Case You Wanna Check It Out.

(Outro)(2.03)
G]-------------------------------]
D]---7-----9-----7---9~-7~-5~----]
A]5/9---7/9---5/9----------------]
E]-------------------------------]

(Outro Pt. 2 x5)(2.10)
G]-------------------------------------------]
D]-------------------------------5~-4~-2~----]
A]3h55-555550h22-222223h55-55555-------------]
E]-------------------------------------------]

                (2.48)
G]---------7---------------------------------]
D]--------0----------------------5~-4~-2~----]
A]3h55-555--0h22-222223h55-55555-------------]
E]-------------------------------------------]

                (2.55)
G]-------------------------------------------]
D]--------55--------22--------55-5~-4~-2~----]
A]3h55-577--0h22-222--3h55-577---------------]
E]-------------------------------------------]

                (3.03)
G]-------------------------------------------]
D]-------------------------------5~-4~-2~----]
A]3h55-555550h22-222223h55-55555-------------]
E]-------------------------------------------]

                (3.10)
G]-------------------------------------------]
D]--222244------22--------5~-----------------]
A]55------224444--5.----5--------------------]
E]-------------------------------------------]

                (3.17)
G]-------------------------------------------]
D]-------------22554422--------4~-2~---------]
A]5.----5224455--------55---5.---------------]
E]-------------------------------------------]

                (3.25)
G]----------------------------------------------]
D]--223344------22554422---5~-4~-2~------- -----]
A]55------224455--------55----------------------]
E]----------------------------------------------]

                (3.32)
G]-------------------------------------------]
D]--223344------22554422------4.-2.----------] X2
A]55------224455--------55-------------------]
E]-------------------------------------------]

                (3.47)
G]-------------------------------------------]
D]-------------------------------5~-4~-2~----]
A]3h55-555550h22-222223h55-55555-------------]
E]-------------------------------------------]

                (3.54)
G]----------------------------------]
D]----4.-7.-----4.-7.------2.-1.----]
A]5.--------5.---------4.-----------]
E]----------------------------------]

thats how it ends, just stops.
anyway there it is guys, enjoy

:) peace out
comments
We did not receive enough feedback on this tab! Please rate:
print report bad tab
1 2 3 4 5
I want to post or [tab]
guest
You may want to rate the tab now too:
select rating
Please do not post tabs as comments. Select "correction" instead!